PrimaNota.ru - самый крупный в мире бесплатный архив песенных текстов, аккордов, табулатур и нот


1994 - King Kong Stompin Man - таба, видео

Регистрация Запомнить меня
Войти через:  Facebook Google Twitter Vk Yandex Mail.ru

1994 - King Kong Stompin Man - таба, видео

Печатать
Просмотров: 99
Уроки эстрадного вокала в Санкт-Петербурге
http://1994withanexclamationpoint.bandcamp.com/

Gtr I (D A D G B E)

  Q=108
 4/4
              Gtr I
  T
  H    Q.   S S   +E  S T T  S   S   S    S    S    S S  S   S  S S S
|---------------|-----------------------------------------------------|
|---------------|------------------------10--(10)-(10)----------------|
|---------------|-------0h9h11-(11)-11--(11)-(11)---------------------|
|-------------0-|-(0)------------0--(0)--(0)-------12p0-(0)-12-12---0-|
|-------------0-|-(0)--------------------------9---------9--10-10---0-|
|-------------0-|-(0)-----------------------------------------------0-|


    +E  S T T  S   S   S    S    S    S S  S   S  S S S  8x
||-------------------------------------------------------||-|
||o------------------------10--(10)-(10)----------------o||-|
||--------0h9h11-(11)-11--(11)-(11)----------------------||-|
||--(0)------------0--(0)--(0)-------12p0-(0)-12-12---0--||-|
||o-(0)--------------------------9---------9--10-10---0-o||-|
||--(0)-----------------------------------------------0--||-|


    +E  S T T  S   S   S    S    S    S S  S   S  S S S  |
||-------------------------------------------------------|
||o------------------------10--(10)-(10)----------------o|
||--------0h9h11-(11)-11--(11)-(11)----------------------|
||--(0)------------0--(0)--(0)-------12p0-(0)-12-12---0--|
||o-(0)--------------------------9---------9--10-10---0-o|
||--(0)-----------------------------------------------0--|

3x +E  S T T  S   S   S    S    S    S S  S   S  S S S
||--------------------------------------------------------|
||------------------------10--(10)-(10)-------------------|
||-------0h9h11-(11)-11--(11)-(11)------------------------|
||-(0)------------0--(0)--(0)-------12p0-(0)-12-12---5----|
||-(0)--------------------------9---------9--10-10---5----|
||-(0)-----------------------------------------------5----|


  +E  S T T  S   S   S    S    S    S S  S   S  S S S
|-----------------------------------------------------|
|------------------------10--(10)-(10)----------------|
|-------0h9h11-(11)-11--(11)-(11)---------------------|
|-(5)------------0--(0)--(0)-------12p0-(0)-12-12---0-|
|-(5)--------------------------9---------9--10-10---0-|
|-(5)-----------------------------------------------0-|


    +E  S T T  S   S   S    S    S    S S  S   S  S S S  |
||-------------------------------------------------------|
||o------------------------10--(10)-(10)----------------o|
||--------0h9h11-(11)-11--(11)-(11)----------------------|
||--(0)------------0--(0)--(0)-------12p0-(0)-12-12---0--|
||o-(0)--------------------------9---------9--10-10---0-o|
||--(0)-----------------------------------------------0--|

   +E  S T T  S   S   S    S    S    S S  S   S  S S S
||-----------------------------------------------------|
||------------------------10--(10)-(10)----------------|
||-------0h9h11-(11)-11--(11)-(11)---------------------|
||-(0)------------0--(0)--(0)-------12p0-(0)-12-12---5-|
||-(0)--------------------------9---------9--10-10---5-|
||-(0)-----------------------------------------------5-|


  +E  S T T  S   S   S    S    S    S S  S   S  S S S
|-----------------------------------------------------|
|------------------------10--(10)-(10)----------------|
|-------0h9h11-(11)-11--(11)-(11)---------------------|
|-(5)------------0--(0)--(0)-------12p0-(0)-12-12---0-|
|-(5)--------------------------9---------9--10-10---0-|
|-(5)-----------------------------------------------0-|


    +E  S T T  S   S   S    S    S    S S  S   S  S S S  |
||-------------------------------------------------------|
||o------------------------10--(10)-(10)----------------o|
||--------0h9h11-(11)-11--(11)-(11)----------------------|
||--(0)------------0--(0)--(0)-------12p0-(0)-12-12---0--|
||o-(0)--------------------------9---------9--10-10---0-o|
||--(0)-----------------------------------------------0--|

   +E  S T T  S   S   S    S    S    S S  S   S  S E
||----------------------------------------------------|
||------------------------10--(10)-(10)---------------|
||-------0h9h11-(11)-11--(11)-(11)--------------------|
||-(0)------------0--(0)--(0)-------12p0-(0)-12-12----|
||-(0)--------------------------9---------9--10-10----|
||-(0)------------------------------------------------|



  S S S S S S S S S S S S S S  E      S S S S S S S S S S S S S S  E      3x
|---------------------------------||--------------------------------------||
|---------------------------------||o------------------------------------o||
|---------------7p0-------6p0-----||----------------7p0-------6p0-<5>-----||
|-2p0-----5p4p0-----0h4p0-----<5>-||--2p0-----5p4p0-----0h4p0-------------||
|-----5p0-------------------------||o-----5p0----------------------------o||
|---------------------------------||--------------------------------------||


    S S S S S S S S S S S S S S E  3x S S S S S S S S S S S S E E
||---------------------------------||------------------------------|
||o-------------------------------o||------------------------------|
||----------------7p0-------6p0----||---------------7p0------------|
||--2p0-----5p4p0-----0h4p0-----0--||-2p0-----5p4p0-----0h4p0-0-0--|
||o-----5p0---------------------0-o||-----5p0-----------------0-0--|
||------------------------------0--||-------------------------0-0--|


  E S T T  S   S   S    S    S    S S  S   S  S S S |
|---------------------------------------------------|
|----------------------10--(10)-(10)----------------|
|-----0h9h11-(11)-11--(11)-(11)---------------------|
|-5------------0--(0)--(0)-------12p0-(0)-12-12---0-|
|-5--------------------------9---------9--10-10---0-|
|-5-----------------------------------------------0-|

    +E  S T T  S   S   S    S    S    S S  S   S  S S S  7x
||-------------------------------------------------------||
||o------------------------10--(10)-(10)----------------o||
||--------0h9h11-(11)-11--(11)-(11)----------------------||
||--(0)------------0--(0)--(0)-------12p0-(0)-12-12---0--||
||o-(0)--------------------------9---------9--10-10---0-o||
||--(0)-----------------------------------------------0--||


  +E  S T T  S   S   S    S    S    S S  S   S  S E
|----------------------------------------------------|
|------------------------10--(10)-(10)---------------|
|-------0h9h11-(11)-11--(11)-(11)--------------------|
|-(0)------------0--(0)--(0)-------12p0-(0)-12-12----|
|-(0)--------------------------9---------9--10-10----|
|-(0)------------------------------------------------|


 6/8
  S  S  S   E S  S  S   E  E   S  S  S   E S  S  S   S S E
|----------------------------|-----------------------------|
|----------------------------|-----------------------------|
|-0-(0)(0)--0-0-(0)(0)--0\---|-0-(0)(0)--0-0-(0)(0)--------|
|-7-(7)(7)-12-7-(7)(7)-12\-0-|-7-(7)(7)-12-7-(7)(7)-12p0-0-|
|-9h10p=9--10-9h10p=9--10\-0-|-9h10p=9--10-9h10p=9-------0-|
|--------------------------0-|---------------------------0-|


  S  S  S   E S  S  S   E  a  E   S  S  S   E S  S  S   S S E
|-------------------------------|-----------------------------|
|-------------------------------|-----------------------------|
|-0-(0)(0)--0-0-(0)(0)--0\------|-0-(0)(0)--0-0-(0)(0)--------|
|-7-(7)(7)-12-7-(7)(7)-12\------|-7-(7)(7)-12-7-(7)(7)-12p0-0-|
|-9h10p=9--10-9h10p=9--10\------|-9h10p=9--10-9h10p=9-------0-|
|--------------------------5S12-|---------------------------0-|


   S   S   S   E S  S  S   e e     S  S  S   E S  S  S   e e  3x
|------------------------------||-----------------------------||
|------------------------------||o---------------------------o||
|--0--(0)-(0)--0-0-(0)(0)--0---||--0-(0)(0)--0-0-(0)(0)--0----||
|--7--(7)-(7)-12-7-(7)(7)-12-0-||--7-(7)(7)-12-7-(7)(7)-12-0--||
|--9h=10p==9--10-9h10p=9--10-0-||o-9h10p=9--10-9h10p=9--10-0-o||
|-(0)-(0)-(0)----------------0-||--------------------------0--||


  S  S  S   E S  S  S   E   E   S  S  S   E S  S  S   S S E
|-----------------------------|-----------------------------|
|-----------------------------|-----------------------------|
|-0-(0)(0)--0-0-(0)(0)--------|-0-(0)(0)--0-0-(0)(0)--------|
|-7-(7)(7)-12-7-(7)(7)-12\--0-|-7-(7)(7)-12-7-(7)(7)-12p0-0-|
|-9h10p=9--10-9h10p=9-------0-|-9h10p=9--10-9h10p=9-------0-|
|---------------------------0-|---------------------------0-|


  S  S  S   E S  S  S   E  E   S  S  S   E S  S  S   S S E   E E H.
|----------------------------|-----------------------------|-----------*|
|----------------------------|-----------------------------|-----------*|
|-0-(0)(0)--0-0-(0)(0)--0\---|-0-(0)(0)--0-0-(0)(0)--------|-----------*|
|-7-(7)(7)-12-7-(7)(7)-12\-0-|-7-(7)(7)-12-7-(7)(7)-12p0-0-|-7---------*|
|-9h10p=9--10-9h10p=9--10\-0-|-9h10p=9--10-9h10p=9-------0-|-9---------*|
|--------------------------0-|---------------------------0-|-0---------*|

Close enough.
Smoke weed.
-Caleb
Добавлено: 23.07.2013
Другие материалы по этой песне:
  • Аккорды и текст

Страница создана 23.07.2013
http://primanota.ru/1994/king-kong-stompin-man-chords.htm
Привет, Гость.
Предлагаем пройти революционный курс по гитаре.
Подарок от PrimaNota.Ru, забирай!