PrimaNota.ru - самый крупный в мире бесплатный архив песенных текстов, аккордов, табулатур и нот


16 Volt - Beating Dead Horses - таба, видео

Регистрация Запомнить меня
Войти через:  Facebook Google Twitter Vk Yandex Mail.ru

16 Volt - Beating Dead Horses - таба, видео

Печатать
Просмотров: 210
Hello! First off I would just like to say I am a massive fan of 16V, their music really 
is amazing and meaningful. So I've been searching everywhere for a tab to this song but 
had no luck so today I sat down and tabbed it myself.

Before we get started this is my first tab! Enjoy!


Intro/Verse:

E|--------------------------------|
B|--------------------------------|
G|--------------------------------|    x8
D|2-0-0-0-2-0-0-0-2-0-0-0-2-0-0---|
A|2-0-0-0-2-0-0-0-2-0-0-0-2-0-0-3-|
D|2-0-0-0-2-0-0-0-2-0-0-0-2-0-0-1-|
    * * *   * * *   * * *   * *
Chorus:

"It's not for profit and the gain is the misery"
E|------------------------------|
B|------------------------------|
G|------------------------------|
D|0-0-2-0-0-3-0-0-4-0-0-5-0-0---|    x4
A|0-0-2-0-0-3-0-0-4-0-0-5-0-0-3-|
D|0-0-2-0-0-3-0-0-4-0-0-5-0-0-1-|
  * *   * *   * *   * *   * *

Repeat Intro/Verse and the Chorus.
If you listen to the song while playing this you should be able to get your timing spot 
on and in sync with the song easily. I think it's one of their easier song's to learn.


I apologies if this is not the best tab but I tried my best! Let me know what you think 
fellow 16V lovers! :)

~Mark~
Добавлено: 16.09.2013
Другие материалы по этой песне:
  • Аккорды и текст

Страница создана 16.09.2013
http://primanota.ru/16-volt/beating-dead-horses-chords.htm
Привет, Гость.
Предлагаем пройти революционный курс по гитаре.
Подарок от PrimaNota.Ru, забирай!