PrimaNota.ru - самый крупный в мире бесплатный архив песенных текстов, аккордов, табулатур и нот


16 Horsepower - The Denver Grab - текст песни, таба, видео

Регистрация Запомнить меня
Войти через:  Facebook Google Twitter Vk Yandex Mail.ru

16 Horsepower - The Denver Grab - текст песни, таба, видео

Печатать
Просмотров: 170
Chords:

       Bm       Dm       C#       C#2
e|------2--------5--------1--------x---------------------|
B|------3--------6--------2--------18--------------------|
G|------4--------7--------1--------18--------------------|
D|------4--------7--------3--------18--------------------|
A|------2--------5--------4--------16--------------------|
E|------x--------x--------x--------x---------------------|

Riff_1:

e|---------------------------------------------------|
B|-----------------------------7---------------------|
G|--------------------7---6--------------------------|
D|---------------------------------------------------|
A|---------------------------------------------------|
E|---5-5----7----------------------------------------|


Riff_2:

e|---------------------------------------------------|
B|-------------------7----6-----7--------------------|
G|---------------------------------------------------|
D|---------------------------------------------------|
A|---------------------------------------------------|
E|---5-5----7----------------------------------------|

Intro:

Bm  Dm  Bm  Riff_1
Bm  Dm  Bm  Riff_2  C#2
Bm  C#2  Bm  C#2  Bm  C#2  Bm
C#  Dm  C#  Dm  C#  Dm  C#  Dm

Verse:

Bm              Dm         Bm
See my love cut down the lane
Bm                 Dm             Bm
Sways and grinds ooh, that's your play
Bm
Ya treat me like your prayers
Dm       Bm
Though I'm alone
Bm                             Dm        Bm
Yer drivin' me to pray, "trouble" I'm undone

Chorous:

C#2            Bm
  Hold me up
C#2              Bm
  Will ye be my doll?
C#2         Bm
 Hold me up
C#2              Bm
 'Til the sun it cometh down

Verse 2:

Bm
I didn't want it no
Dm       Bm
Blood is to blame
Bm                          Dm       Bm
There's a little fury on me and I'm ok
Bm
Don't tell me that
Dm         Bm
You'll descend 'cause
Bm            Dm       Bm
I'm no bedlam I'm your friend

Chorous:

C#2            Bm
  Hold me up
C#2              Bm
  Will ye be my doll?
C#2         Bm
 Hold me up
C#2              Bm
 'Til the sun it cometh down

Bridge:

C# Dm C# Dm C# Dm C# Dm

Verse 3:

Bm            Dm         Bm
See the girl - the girl's alone
Bm            Dm         Bm
See the boy - away from home
Bm
Don't tell him nothin'
Dm           Bm
Leave well enough alone
Bm           Dm         Bm
Boy, oh boy, the boy's a stone

Chorous:

C#2            Bm
  Hold me up
C#2              Bm
  Will ye be my doll?
C#2         Bm
 Hold me up
C#2              Bm
 'Til the sun it cometh down
Добавлено: 21.10.2013
Другие материалы по этой песне:
  • Аккорды и текст

Страница создана 16.05.2012
http://primanota.ru/16-horsepower/the-denver-grab-chords.htm
Привет, Гость.
Предлагаем пройти революционный курс по гитаре.
Подарок от PrimaNota.Ru, забирай!