PrimaNota.ru - самый крупный в мире бесплатный архив песенных текстов, аккордов, табулатур и нот


16 Horsepower - Neck on The New Blade - текст песни, бас-таба, видео

Регистрация Запомнить меня
Войти через:  Facebook Google Twitter Vk Yandex Mail.ru

16 Horsepower - Neck on The New Blade - текст песни, бас-таба, видео

Печатать
Просмотров: 279
Авторы: David Eugene Edwards, 16 Horsepower

16 Horsepower
Neck on the New Blade
from 'Sackcloth n' Ashes'
 
intro and interlude between verses (with the french accordion lick):
---------------7------------------
-------------9--------------------
-7-----7---7-----------------9----
-----------------7-----7---7---10-
 
main riff
---------------------------------
---------------------------4/5---
-7-----------5---2---------------
---------------------------------

________________________________________________________________________________
     
Добавлено: 30.08.2013
Другие материалы по этой песне:
  • Аккорды и текст

Страница создана 24.04.2012
http://primanota.ru/16-horsepower/neck-on-the-new-blade-chords.htm
Привет, Гость.
Предлагаем пройти революционный курс по гитаре.
Подарок от PrimaNota.Ru, забирай!