PrimaNota.ru - самый крупный в мире бесплатный архив песенных текстов, аккордов, табулатур и нот


16 Horsepower - Blessed Persistence - бас-таба, видео

Регистрация Запомнить меня
Войти через:  Facebook Google Twitter Vk Yandex Mail.ru

16 Horsepower - Blessed Persistence - бас-таба, видео

Печатать
Просмотров: 214
Авторы музыки: 16 Horsepower
Авторы текста: David Eugene Edwards
16 Horsepower
Blessed Persistence
from 'Folklore'
tabbed by Benjamin Hockenberry

main riff (with some variations holding quarter notes)
----------------|-----------------|-----------------|-----------------|
----------------|-----------------|-----------------|-----------------|
----------------|-----------------|-5-5-5-5-5-5-5-5-|-5-5-5-5-5-5-5-5-|
8-8-8-8-8-8-8-8-|-8-8-8-8-8-8-8-8-|-----------------|-----------------|

-----------------|-----------------|-----------------|-----------------|
-----------------|-----------------|-----------------|-----------------|
-----------------|-----------------|-5-5-5-5-5-5-5-6-|-8-8-8-8-8-8-6-5-|
-8-8-8-8-8-8-8-8-|-8-8-8-8-8-8-8-8-|-----------------|-----------------|

arco passage overlaid at 2:26, either cello or bass on second track.
-----------------|-----------------|-----------------|-----------------|
-----------------|-----------------|-----------------|-----------------|
-----------------|-----------------|-----------------|-----------------|
-8-8-8-8-6-6-6-6-|-5-5-5-5-3-3-6-6-|-5-5-5-5-5-5-5-5-|-5-5-5-5-5-5-5-5-|

-----------------|-----------------|-----------------|-----------------|
-----------------|-----------------|-----------------|-----------------|
-----------------|-----------------|-----------------|-----------------|
-8-8-8-8-6-6-6-6-|-5-5-5-5-3-3-6-6-|-5-5-5-5-5-5-5-6-|-8-8-8-8-8-8-8-8-|

________________________________________________________________________________
     
Добавлено: 15.08.2013
Другие материалы по этой песне:
  • Аккорды и текст

Страница создана 15.08.2013
http://primanota.ru/16-horsepower/blessed-persistence-chords.htm
Привет, Гость.
Предлагаем пройти революционный курс по гитаре.
Подарок от PrimaNota.Ru, забирай!