PrimaNota.ru - самый крупный в мире бесплатный архив песенных текстов, аккордов, табулатур и нот


16 Horsepower - Black Bush - текст песни, бас-таба, видео

Регистрация Запомнить меня
Войти через:  Facebook Google Twitter Vk Yandex Mail.ru

16 Horsepower - Black Bush - текст песни, бас-таба, видео

Печатать
Просмотров: 344
Уроки эстрадного вокала в Санкт-Петербурге
16 Horsepower
Black Bush
from 'Sackcloth n' Ashes'
 
intro and verse
---------------------------------|----------------------------------------
---10---10-8----8-10-------------|---10---10-8----8-10--------------------
-------------10------------------|-------------10------------8h10p8-------
-8-------------------8---8-8---6-|-8-------------------8---8--------11-10-
 
chorus
------------------------------|-------------------------|
------------------------------|-------------------------|
-8h10---10---8-10-------------|-------------------------|
------------------------11-10-|-8---8---6-8-------------|
 
interlude at 1:50
-----------------|------------------|
-8---------------|------------------|
---------8-------|-10---------------|
-----------------|------------------|

________________________________________________________________________________
     
Добавлено: 30.10.2013
Другие материалы по этой песне:
  • Аккорды и текст

Страница создана 28.06.2012
http://primanota.ru/16-horsepower/black-bush-chords.htm
Привет, Гость.
Предлагаем пройти революционный курс по гитаре.
Подарок от PrimaNota.Ru, забирай!