PrimaNota.ru - самый крупный в мире бесплатный архив песенных текстов, аккордов, табулатур и нот


16 Frames - Everything Around Me Coming Down - таба, видео

Регистрация Запомнить меня
Войти через:  Facebook Google Twitter Vk Yandex Mail.ru

16 Frames - Everything Around Me Coming Down - таба, видео

Печатать
Просмотров: 200
                                          Artist - 16 Frames
                                         ********************
                              Song - Everything Around Me (Coming Down)
                             *******************************************
                                        Album - Where It Ends
                                       ***********************
                                         Tabbed By - Ayreon77
                                        **********************



VERSE 1
********
A      F#m   E                            D
Lately,    I get the feeling when I'll be sane
     A        F#m     E                            D
It's too much,    I'm not sure how much more I can take
  Bm                    C#m
I need a little time to make sense
   D                    E
Of how I got so high so fast.


 This is the electric played throughout the verse
[-16-17-|-16-17-14-12-|-16-17-|-16-17-14-12-|-16----17----19-----12-]
[-------|-------------|-------|-------------|-----------------------]
[-------|-------------|-------|-------------|-----------------------]
[-------|-------------|-------|-------------|-----------------------]
[-------|-------------|-------|-------------|-----------------------]
[-------|-------------|-------|-------------|-----------------------]


--------------------------------------------------------
CHORUS
*******
A                         D
   And I think I'm coming down
A                         D 
   And I think I'm coming down
E           Bm                              D
 Everything around me falls away except for you
                   A
I think I'm coming down
  D   C#m    Bm
Ooooo     Ooooooo

 This is the electric played throughout the Chorus
 Guitar 1
[------2---------------2----------------------------2------------]
[-2----3----------2----3---------0-----3------------3------------]
[-2----2----------2----2---------1-----4------------2------------]
[-2----0----------2----0---------2-----4------------0------------]
[-0---------------0--------------2-----2-------------------------]
[----------------------------------------------------------------]
|                                                                |
|Guitar 2                        s                               |
[---------5---4-5---------5---4-5\7------------------------------]
[-----------5---------------5-------------3---2---3---3---2---3--]
[-------------------------------------------4---4-------4---4----]
[----------------------------------------------------------------]
[----------------------------------------------------------------]
[----------------------------------------------------------------]


 Guitar 1
[-----2-----------------------------]
[-2---3-------------5-------------3-]
[-2---2-------------6-------------4-]
[-2---0-------------6-------------4-]
[-0-----------------4-------------2-]
[-----------------------------------]
|                                   |
|Guitar 2                           |
[---------5---4---5---5---4---5-----]
[-----------5---5-------5---5---3---]
[-----------------------------------]
[-----------------------------------]
[-----------------------------------]
[-----------------------------------]


--------------------------------------------------------
VERSE 2
********
     A       F#m    E                         D
Been running,    So lost inside this city for days
         A           F#m       E                  D
Then you call me out,   Ohh to see if I was doing ok
  Bm               C#m
I don't want to be troubled
          D                          E
Because I couldn't leave well enough alone


 This is the electric played throughout the verse
[-16-17-|-16-17-14-12-|-16-17-|-16-17-14-12-|-16----17----19-----12-]
[-------|-------------|-------|-------------|-----------------------]
[-------|-------------|-------|-------------|-----------------------]
[-------|-------------|-------|-------------|-----------------------]
[-------|-------------|-------|-------------|-----------------------]
[-------|-------------|-------|-------------|-----------------------]


--------------------------------------------------------
CHORUS
*******
A                         D
   And I think I'm coming down
A                         D 
   And I think I'm coming down
E           Bm                              D
 Everything around me falls away except for you
                   A
I think I'm coming down


 This is the electric played throughout the Chorus
 Guitar 1
[------2---------------2----------------------------2------------]
[-2----3----------2----3---------0-----3------------3------------]
[-2----2----------2----2---------1-----4------------2------------]
[-2----0----------2----0---------2-----4------------0------------]
[-0---------------0--------------2-----2-------------------------]
[----------------------------------------------------------------]
|                                                                |
|Guitar 2                        s                               |
[---------5---4-5---------5---4-5\7------------------------------]
[-----------5---------------5-------------3---2---3---3---2---3--]
[-------------------------------------------4---4-------4---4----]
[----------------------------------------------------------------]
[----------------------------------------------------------------]
[----------------------------------------------------------------]


--------------------------------------------------------
BRIDGE
*******
     E             D           D                    A
This time, there's no one else except for me in the way
    F#m    C#m            D
And I    have to tell you what I'm feeling
         Bm               C#m        D                     E
It's that I don't want to taken by a lie that's gone to my head
       Bm                          C#m             D
If I'm yours then why am I outside waiting at your door in the night
        E                         A
Tell me everything, every thing's alright.


 This is the electric played through the Bridge
[-14----12----17----19----21-|-16-17--12---16-17--14---16-17--19---19-]
[----------------------------|----------------------------------------]
[----------------------------|----------------------------------------]
[----------------------------|----------------------------------------]
[----------------------------|----------------------------------------]
[----------------------------|----------------------------------------]


--------------------------------------------------------
CHORUS X2 without the Ooooos
*******

 This is the electric played throughout the Chorus
 Guitar 1
[------2---------------2----------------------------2------------]
[-2----3----------2----3---------0-----3------------3------------]
[-2----2----------2----2---------1-----4------------2------------]
[-2----0----------2----0---------2-----4------------0------------]
[-0---------------0--------------2-----2-------------------------]
[----------------------------------------------------------------]
|                                                                |
|Guitar 2                        s                               |
[---------5---4-5---------5---4-5\7------------------------------]
[-----------5---------------5-------------3---2---3---3---2---3--]
[-------------------------------------------4---4-------4---4----]
[----------------------------------------------------------------]
[----------------------------------------------------------------]
[----------------------------------------------------------------]


 Guitar 1
[-------------2-----------------------2------------------]
[-2-----------3-----------2-----------3----------0-----3-]
[-2-----------2-----------2-----------2----------1-----4-]
[-2-----------0-----------2-----------3----------2-----4-]
[-0-----------------------0----------------------2-----2-]
[--------------------------------------------------------]
|                                                        |
|Guitar 2                                        s       |
[---5---4---5---5---4---5---5---4---5---5---4---5\7------]
[-----5---5-------5---5-------5---5-------5---5----------]
[--------------------------------------------------------]
[--------------------------------------------------------]
[--------------------------------------------------------]
[--------------------------------------------------------]


 Guitar 1
[-----------2--------------]
[-----------3------------2-]
[-----------2------------2-]
[-----------0------------2-]
[------------------------0-]
[--------------------------]
|                          |
|Guitar 2                  |
[--------------------------]
[-3---2---3---3---2---3----]
[---4---4-------4---4------]
[--------------------------]
[--------------------------]
[--------------------------]


Enjoy...........
Добавлено: 25.11.2013
Вам также может быть интересно:
Другие материалы по этой песне:
  • Аккорды и текст

Страница создана 25.11.2013
http://primanota.ru/16-frames/everything-around-me-coming-down-chords.htm
Привет, Гость.
Предлагаем пройти революционный курс по гитаре.
Подарок от PrimaNota.Ru, забирай!