PrimaNota.ru - самый крупный в мире бесплатный архив песенных текстов, аккордов, табулатур и нот


16 Down - Can I Ever Get This Close To You Again - таба, видео

Регистрация Запомнить меня
Войти через:  Facebook Google Twitter Vk Yandex Mail.ru

16 Down - Can I Ever Get This Close To You Again - таба, видео

Печатать
Просмотров: 245
Уроки эстрадного вокала в Санкт-Петербурге
Artist: 16 Down
Song: Can I ever get this close to you again
Abum: Life in a fishbowl

Transcription by Ynse Algra
Date: 23-11-2003
Comments: y.j.algra@home.nl


Intro + Verse:

Can I ever.....
 Dm		   F		     Bb		       Gm7/9
|-----0-------0---|-----5-------5---|-----6-------6---|-----5-------5---||
|---6---6---6---6-|---6---6---6--6--|---6---6---6---6-|---6---6---6---6-||
|-7-------7-------|-5-------5-------|-3-------3-------|-0-------0-------||
|-----------------|-----------------|-----------------|-----------------||
|-----------------|-----------------|-----------------|-----------------||
|-----------------|-----------------|-----------------|-----------------||

Chorus:

I don't know what.....
   Dm   F   Bb Gm7/9
Eb|-5---5---6---x---||
Bb|-6---6---6---10--||
Gb|-7---5---7---10--||
Db|-7---7---8---8---||
Ab|-5---8---8---10--||
Eb|-x---5---6---x---||

I don't know what ....
 Dm		   F		     Bb		       Gm7/9
|-----0-------0---|-----5-------5---|-----6-------6---|-----5-------5---||
|---6---6---6---6-|---6---6---6--6--|---6---6---6---6-|---6---6---6---6-||
|-7-------7-------|-5-------5-------|-3-------3-------|-0-------0-------||
|-----------------|-----------------|-----------------|-----------------||
|-----------------|-----------------|-----------------|-----------------||
|-----------------|-----------------|-----------------|-----------------||

Bridge:
Eb|-----------------------------------------||
Bb|-----------------------------------------||
Gb|-7-7-7-10-10-10-4-4-4-12-12-12-----------||
Db|-----------------------------------------||
Ab|-5-5-5-8--8--8--2-2-2-10-10-10-8----7----||
Eb|---------------------------------10---9--||
						2x
Eb|-----------------------------------------||
Bb|----------------8-8-8-9-9-9--------------||
Gb|-7-7-7-10-10-10-------------5---5-6------||
Db|----------------5-5-5-6-6-6---7----------||
Ab|-5-5-5-8--8--8---------------------------||
Eb|-----------------------------------------||

Life in a fish- bowl.....
Eb|-----8-----8-----8-----8-----7-----||
Bb|-----6-----6-----6-----6-----6-----||
Gb|---7-----7-----7-----7-----7-------||
Db|-0-----0-----0-----0-----0---------||
Ab|-----------------------------------||
Eb|-----------------------------------||

Chorus

Outro = intro
     
Добавлено: 18.09.2013
Другие материалы по этой песне:
  • Аккорды и текст

Страница создана 18.09.2013
http://primanota.ru/16-down/can-i-ever-get-this-close-to-you-again-chords.htm
Привет, Гость.
Предлагаем пройти революционный курс по гитаре.
Подарок от PrimaNota.Ru, забирай!