PrimaNota.ru - самый крупный в мире бесплатный архив песенных текстов, аккордов, табулатур и нот


14 - Drizzle - бас-таба, видео

Регистрация Запомнить меня
Войти через:  Facebook Google Twitter Vk Yandex Mail.ru

14 - Drizzle - бас-таба, видео

Печатать
Просмотров: 113
Уроки эстрадного вокала в Санкт-Петербурге
Tabbed by: 6METAL6BASSIST6
E-mail: petergriffinav@gmail.com

Tuning: EADG

G|------------------------------------------------------------------------------------------------|
D|------------------------------------------------------------------------------------------------|
A|7-----7-----7-----7-----7-----7-----7-----7-----7-----7-----7-----7-----7-----7-----7-----7-----|
E|------------------------------------------------------------------------------------------------|

G|------------------------------------------------------------------------------------------------|
D|------------------------------------------------------------------------------------------------|
A|7-----7-----7-----7-----7-----7-----7-----7-----7-----7-----7-----7-----7-----------------------|
E|------------------------------------------------------------------------------------------------|

0:15

G|------------------------------------------------------------------------------------------------|
D|7-----------7---7-------7-----------7---7-------7-----------7---7-------7---------7-----7-------|
A|----------7-----------7-----------7-----------7-----------7-----------7-----------------------7-|
E|------------------------------------------------------------------------------------------------|

G|------------------------------------------------------------------------------------------------|
D|7-----------7---7-------7-----------7---7-------7-----------7---7-------7-----------7---7-------|
A|----------7-----------7-----------7-----------7-----------------------7-----------------------7-|
E|------------------------------------------------------------------------------------------------|

G|------------------------------------------------------------------------------------------------|
D|7-----------7---7-------7-----------7---7-------7-----------7---7-------7-----------7---7-------|
A|----------7-----------7-----------7-----------7-----------7-----------7-----------------------7-|
E|------------------------------------------------------------------------------------------------|

G|------------------------------------------------|
D|7-----------7---7-------7-----------7---7-------|
A|----------7-----------7-----------7-------------|
E|------------------------------------------------|

0:38

G|------------------------------------------------------------------------------------------------|
D|------------------------------------------------------------------------------------------------| x2
A|7-----7-----7-----7-----7-----7-----7-----7-----7-----7-----7-----7-----7-----7-----7-----7-----|
E|------------------------------------------------------------------------------------------------|

0:52

G|7---------------6---------------4---------------7-------7-------|
D|----------------------------------------------------7-----------| x2
A|----------------------------------------------------------------|
E|----------------------------------------------------------------|

G|------------------------------------------------------------------------------------|
D|5-----5-----4-----4-----2-----2-----0-----0-----------------------------------------|
A|------------------------------------------------0-----0-----2-----2-----5-----5-----|
E|------------------------------------------------------------------------------------|

1:06

G|------------------------------------------------------------------------------------------------|
D|------------------------------------------------------------------------------------------------| x2
A|7-----7-----7-----7-----7-----7-----7-----7-----7-----7-----7-----7-----7-----7-----7-----7-----|
E|------------------------------------------------------------------------------------------------|

1:19

G|------------------------------------------------------------------------------------------------|
D|7-----------7---7-------7-----------7---7-------7-----------7---7-------7-----------7---7-------| x3
A|----------7-----------7-----------7-----------7-----------7-----------7-----------7-----------7-|
E|------------------------------------------------------------------------------------------------|

G|------------------------------------------------|
D|7-----------7---7-------7-----------7---7-------|
A|----------7-----------7-----------7-------------|
E|------------------------------------------------|

G|------------------------------------------------------------------------------------------------|
D|------------------------------------------------------------------------------------------------| x3  to
A|7-----7-----7-----7-----7-----7-----7-----7-----7-----7-----7-----7-----7-----7-----7-----7-----| fadeout.
E|------------------------------------------------------------------------------------------------|
Добавлено: 20.06.2016
Другие материалы по этой песне:
  • Аккорды и текст

Страница создана 20.06.2016
http://primanota.ru/14/drizzle-chords.htm
Привет, Гость.
Предлагаем пройти революционный курс по гитаре.
Подарок от PrimaNota.Ru, забирай!