PrimaNota.ru - самый крупный в мире бесплатный архив песенных текстов, аккордов, табулатур и нот


12 Stones - Worlds Collide - таба, видео

Регистрация Запомнить меня
Войти через:  Facebook Google Twitter Vk Yandex Mail.ru

12 Stones - Worlds Collide - таба, видео

Печатать
Просмотров: 248
Авторы музыки: Eric Weaver, Paul McCoy
Авторы текста: Paul McCoy
                                                          Worlds Collide - 12 Stones

Tabbed by: oogah33

Tuning: Drop C (CGCFAD)


Intro: (x2)
D|---------------------------------------------------------------------------|
A|------8---10---8----8---7---8----------------------------------------------|
F|----9---9---9-----9---9---9------------------------------------------------|
C|---------------------------------------------------------------------------|
G|---------------------------------------------------------------------------|
C|---------------------------------------------------------------------------|

Verse: (Same as Intro) x2
D|---------------------------------------------------------------------------|
A|------8---10---8----8---7---8------8---10---8----8---7---8-----------------|
F|----9---9---9-----9---9---9------9---9---9-----9---9---9-------------------|
C|---------------------------------------------------------------------------|
G|---------------------------------------------------------------------------|
C|---------------------------------------------------------------------------|

Instrumental: (x2)
D|---------------------------------------------------------------------------|
A|---------------------------------------------------------------------------|
F|---------------------------------------------------------------------------|
C|---2-2-2-2----------2-2-2-2------------------------------------------------|
G|---------------------------------------------------------------------------|
C|-----------2-2-2-2----------2-2-2-2-----5-5-5-5-5-5-5-5-5-5-5-5-5-5-5-5----|
                                          * * * * * * * * * * * * * * * *

D|---------------------------------------------------------------------------|
A|---------------------------------------------------------------------------|
F|---------------------------------------------------------------------------|
C|---------------------------------------------------------------------------|
G|---------------------------------------------------------------------------|
C|--12-12-12-12-0-0-0-0-12-12-12-12-0-0-0-0--7-7-7-7-7-7-7-7-5-5-5-5-5-5-5-5-|
                                             * * * * * * * * * * * * * * * *

Verse: (x2)
D|---------------------------------------------------------------------------|
A|------8---10---8----8---7---8------8---10---8----8---7---8-----------------|
F|----9---9---9-----9---9---9------9---9---9-----9---9---9-------------------|
C|---------------------------------------------------------------------------|
G|---------------------------------------------------------------------------|
C|---------------------------------------------------------------------------|


Pre-Chorus:
D|---------------------------------------------------------------------------|
A|--17----19--20----19----17-------------------------------------------------|
F|---------------------------------------------------------------------------|
C|---------------------------------------------------------------------------|
G|---------------------------------------------------------------------------|
C|---------------------------------------------------------------------------|

Chorus:
D|---------------------------------------------------------------------------|
A|---------------------------------------------------------------------------|
F|---------------------------------------------------------------------------|
C|---------------------------------------------------------------------------|
G|--2-2-2-2-2-2-2-2-2-2-2-2-2-2-2-2--5-5-5-5-5-5-5-5-5-5-5-5-5-5-5-5---------|
C|--2-2-2-2-2-2-2-2-2-2-2-2-2-2-2-2--5-5-5-5-5-5-5-5-5-5-5-5-5-5-5-5---------|

D|---------------------------------------------------------------------------|
A|---------------------------------------------------------------------------|
F|---------------------------------------------------------------------------|
C|---------------------------------------------------------------------------|
G|---------------------------------------------------------------------------|
C|-12-12-12-12-0-0-0-0-12-12-12-12-0-0-0-0--7-7-7-7-7-7-7-7-5-5-5-5-5-5-5-5--|
                                            * * * * * * * * * * * * * * * *

D|---------------------------------------------------------------------------|
A|---------------------------------------------------------------------------|
F|---------------------------------------------------------------------------|
C|---------------------------------------------------------------------------|
G|--2-2-2-2-2-2-2-2-2-2-2-2-2-2-2-2--5-5-5-5-5-5-5-5-5-5-5-5-5-5-5-5---------|
C|--2-2-2-2-2-2-2-2-2-2-2-2-2-2-2-2--5-5-5-5-5-5-5-5-5-5-5-5-5-5-5-5---------|

D|---------------------------------------------------------------------------|
A|---------------------------------------------------------------------------|
F|---------------------------------------------------------------------------|
C|---------------------------------------------------------------------------|
G|---------------------------------------------------------------------------|
C|-12-12-12-12-0-0-0-0-12-12-12-12-0-0-0-0--10-10-10-10-10-10-10-10----------|

D|---------------------------------------------------------------------------|
A|---------------------------------------------------------------------------|
F|---------------------------------------------------------------------------|
C|---------------------------------------------------------------------------|
G|---------------------------------------------------------------------------|
C|-9-9-9-9-9-9-9-9-----------------------------------------------------------|


Post Chorus:
D|---------------------------------------------------------------------------|
A|---------------------------------------------------------------------------|
F|---------------------------------------------------------------------------|
C|---2-2-2-2----------2-2-2-2------------------------------------------------|
G|---------------------------------------------------------------------------|
C|-----------2-2-2-2----------2-2-2-2-----5-5-5-5-5-5-5-5-5-5-5-5-5-5-5-5----|
                                          * * * * * * * * * * * * * * * *

D|---------------------------------------------------------------------------|
A|---------------------------------------------------------------------------|
F|---------------------------------------------------------------------------|
C|---------------------------------------------------------------------------|
G|---------------------------------------------------------------------------|
C|--12-12-12-12-0-0-0-0-12-12-12-12-0-0-0-0--7-7-7-7-7-7-7-7-5-5-5-5-5-5-5-5-|
                                             * * * * * * * * * * * * * * * *

Verse: (x2)
D|---------------------------------------------------------------------------|
A|------8---10---8----8---7---8------8---10---8----8---7---8-----------------|
F|----9---9---9-----9---9---9------9---9---9-----9---9---9-------------------|
C|---------------------------------------------------------------------------|
G|---------------------------------------------------------------------------|
C|---------------------------------------------------------------------------|

Pre-Chorus:
D|---------------------------------------------------------------------------|
A|--17----19--20----19----17-------------------------------------------------|
F|---------------------------------------------------------------------------|
C|---------------------------------------------------------------------------|
G|---------------------------------------------------------------------------|
C|---------------------------------------------------------------------------|

Chorus:
D|---------------------------------------------------------------------------|
A|---------------------------------------------------------------------------|
F|---------------------------------------------------------------------------|
C|---------------------------------------------------------------------------|
G|--2-2-2-2-2-2-2-2-2-2-2-2-2-2-2-2--5-5-5-5-5-5-5-5-5-5-5-5-5-5-5-5---------|
C|--2-2-2-2-2-2-2-2-2-2-2-2-2-2-2-2--5-5-5-5-5-5-5-5-5-5-5-5-5-5-5-5---------|

D|---------------------------------------------------------------------------|
A|---------------------------------------------------------------------------|
F|---------------------------------------------------------------------------|
C|---------------------------------------------------------------------------|
G|---------------------------------------------------------------------------|
C|-12-12-12-12-0-0-0-0-12-12-12-12-0-0-0-0--7-7-7-7-7-7-7-7-5-5-5-5-5-5-5-5--|
                                            * * * * * * * * * * * * * * * *

D|---------------------------------------------------------------------------|
A|---------------------------------------------------------------------------|
F|---------------------------------------------------------------------------|
C|---------------------------------------------------------------------------|
G|--2-2-2-2-2-2-2-2-2-2-2-2-2-2-2-2--5-5-5-5-5-5-5-5-5-5-5-5-5-5-5-5---------|
C|--2-2-2-2-2-2-2-2-2-2-2-2-2-2-2-2--5-5-5-5-5-5-5-5-5-5-5-5-5-5-5-5---------|

D|---------------------------------------------------------------------------|
A|---------------------------------------------------------------------------|
F|---------------------------------------------------------------------------|
C|---------------------------------------------------------------------------|
G|---------------------------------------------------------------------------|
C|-12-12-12-12-0-0-0-0-12-12-12-12-0-0-0-0--10-10-10-10-10-10-10-10----------|

D|---------------------------------------------------------------------------|
A|---------------------------------------------------------------------------|
F|---------------------------------------------------------------------------|
C|---------------------------------------------------------------------------|
G|---------------------------------------------------------------------------|
C|-9-9-9-9-9-9-9-9-----------------------------------------------------------|


Post Chorus:
D|---------------------------------------------------------------------------|
A|---------------------------------------------------------------------------|
F|---------------------------------------------------------------------------|
C|---2-2-2-2----------2-2-2-2------------------------------------------------|
G|---------------------------------------------------------------------------|
C|-----------2-2-2-2----------2-2-2-2-----5-5-5-5-5-5-5-5-5-5-5-5-5-5-5-5----|
                                          * * * * * * * * * * * * * * * *

D|---------------------------------------------------------------------------|
A|---------------------------------------------------------------------------|
F|---------------------------------------------------------------------------|
C|---------------------------------------------------------------------------|
G|---------------------------------------------------------------------------|
C|--12-12-12-12-0-0-0-0-12-12-12-12-0-0-0-0--7-7-7-7-7-7-7-7-5-5-5-5-5-5-5-5-|
                                             * * * * * * * * * * * * * * * *

Solo: (Hard to hear, so this is what I got)
D|-----------10h12p10h12-----------------------------------------------------|
A|------10h12----------------------------------------------------------------|
F|--9h12---------------------------------------------------------------------|
C|---------------------------------------------------------------------------|
G|---------------------------------------------------------------------------|
C|---------------------------------------------------------------------------| x6

D|-----------10h12p10h12-----------12h15p12h15-17-19-20-20-20-20-20-20-20-20-|
A|------10h12-----------------12h15------------------------------------------|
F|--9h12-----------------12h14-----------------------------------------------|
C|---------------------------------------------------------------------------|
G|---------------------------------------------------------------------------|
C|---------------------------------------------------------------------------|

D|-20-20-20-20-20-20-20-20-19-19-19-19-19-19-19-19-19-19-19-19-19-19-19-19---|
A|---------------------------------------------------------------------------|
F|---------------------------------------------------------------------------|
C|---------------------------------------------------------------------------|
G|---------------------------------------------------------------------------|
C|---------------------------------------------------------------------------|

D|-17-17-17-17-17-17-17-17-17-17-17-17-17-17-17-17---------------------------|
A|---------------------------------------------------------------------------|
F|---------------------------------------------------------------------------|
C|---------------------------------------------------------------------------|
G|---------------------------------------------------------------------------|
C|---------------------------------------------------------------------------|

(Two guitars end the solo)
Solo End 1:
D|--15-15-15-15-15-15-15-15-14-14-14-14-14-14-14-14-12-----------------------|
A|---------------------------------------------------------------------------|
F|---------------------------------------------------------------------------|
C|---------------------------------------------------------------------------|
G|---------------------------------------------------------------------------|
C|---------------------------------------------------------------------------|

Solo End 2:
D|-----------10h12p10h12-----------12h15p12-17-19----------------------------|
A|------10h12-----------------12h15------------------------------------------|
F|--9h12-----------------12h14-----------------------------------------------|
C|---------------------------------------------------------------------------|
G|---------------------------------------------------------------------------|
C|---------------------------------------------------------------------------|

Post Chorus 2: (Guitar 1)
D|---------------------------------------------------------------------------|
A|------8---10---8----8---7---8------8---10---8----8---7---8-----------------|
F|----9---9---9-----9---9---9------9---9---9-----9---9---9-------------------|
C|---------------------------------------------------------------------------|
G|---------------------------------------------------------------------------|
C|---------------------------------------------------------------------------| x2

Post Chorus 2: (Guitar 2)
D|---------------------------------------------------------------------------|
A|--12-11----7----5---4--------------9---11----7----5---4--------------------|
F|---------------------------------------------------------------------------|
C|---------------------------------------------------------------------------|
G|---------------------------------------------------------------------------|
C|---------------------------------------------------------------------------|

Chorus:
D|---------------------------------------------------------------------------|
A|---------------------------------------------------------------------------|
F|---------------------------------------------------------------------------|
C|---------------------------------------------------------------------------|
G|--2-2-2-2-2-2-2-2-2-2-2-2-2-2-2-2--5-5-5-5-5-5-5-5-5-5-5-5-5-5-5-5---------|
C|--2-2-2-2-2-2-2-2-2-2-2-2-2-2-2-2--5-5-5-5-5-5-5-5-5-5-5-5-5-5-5-5---------|

D|---------------------------------------------------------------------------|
A|---------------------------------------------------------------------------|
F|---------------------------------------------------------------------------|
C|---------------------------------------------------------------------------|
G|---------------------------------------------------------------------------|
C|-12-12-12-12-0-0-0-0-12-12-12-12-0-0-0-0--7-7-7-7-7-7-7-7-5-5-5-5-5-5-5-5--|
                                            * * * * * * * * * * * * * * * *

D|---------------------------------------------------------------------------|
A|---------------------------------------------------------------------------|
F|---------------------------------------------------------------------------|
C|---------------------------------------------------------------------------|
G|--2-2-2-2-2-2-2-2-2-2-2-2-2-2-2-2--5-5-5-5-5-5-5-5-5-5-5-5-5-5-5-5---------|
C|--2-2-2-2-2-2-2-2-2-2-2-2-2-2-2-2--5-5-5-5-5-5-5-5-5-5-5-5-5-5-5-5---------|

D|---------------------------------------------------------------------------|
A|---------------------------------------------------------------------------|
F|---------------------------------------------------------------------------|
C|---------------------------------------------------------------------------|
G|---------------------------------------------------------------------------|
C|-12-12-12-12-0-0-0-0-12-12-12-12-0-0-0-0--10-10-10-10-10-10-10-10----------|

D|---------------------------------------------------------------------------|
A|---------------------------------------------------------------------------|
F|---------------------------------------------------------------------------|
C|---------------------------------------------------------------------------|
G|---------------------------------------------------------------------------|
C|-9-9-9-9-9-9-9-9-----------------------------------------------------------|

Post Chorus:
D|---------------------------------------------------------------------------|
A|---------------------------------------------------------------------------|
F|---------------------------------------------------------------------------|
C|---2-2-2-2----------2-2-2-2------------------------------------------------|
G|---------------------------------------------------------------------------|
C|-----------2-2-2-2----------2-2-2-2-----5-5-5-5-5-5-5-5-5-5-5-5-5-5-5-5----|
                                          * * * * * * * * * * * * * * * *

D|---------------------------------------------------------------------------|
A|---------------------------------------------------------------------------|
F|---------------------------------------------------------------------------|
C|---------------------------------------------------------------------------|
G|---------------------------------------------------------------------------|
C|--12-12-12-12-0-0-0-0-12-12-12-12-0-0-0-0--7-7-7-7-7-7-7-7-5-5-5-5-5-5-5-5-|
                                             * * * * * * * * * * * * * * * *

D|---------------------------------------------------------------------------|
A|---------------------------------------------------------------------------|
F|---------------------------------------------------------------------------|
C|---2-2-2-2----------2-2-2-2------------------------------------------------|
G|---------------------------------------------------------------------------|
C|-----------2-2-2-2----------2-2-2-2-----5-5-5-5-5-5-5-5-5-5-5-5-5-5-5-5----|
                                          * * * * * * * * * * * * * * * *

D|---------------------------------------------------------------------------|
A|---------------------------------------------------------------------------|
F|---------------------------------------------------------------------------|
C|---------------------------------------------------------------------------|
G|---------------------------------------------------------------------------|
C|-12-12-12-12-0-0-0-0-12-12-12-12-0-0-0-0--10-10-10-10-10-10-10-10----------|

D|------------------------------------------------------------------------------|
A|------------------------------------------------------------------------------|
F|------------------------------------------------------------------------------|
C|---------------------2--------------------------------------------------------|
G|---------------------2--------------------------------------------------------|
C|-9-9-9-9-9-9-9-9-----2--------------------------------------------------------|


************************************

| /   slide up
| \   slide down
| h   hammer-on
| p   pull-off
| ~   vibrato
| +   harmonic
| x   Mute note
| b   Bend
| pb  Pre-bend
| br  Bend release
| pbr Pre-bend release
| brb Bend release bend
| *   Palm mute

************************************
Добавлено: 07.07.2013
Другие материалы по этой песне:
  • Аккорды и текст

Страница создана 07.07.2013
http://primanota.ru/12-stones/worlds-collide-chords.htm
Привет, Гость.
Предлагаем пройти революционный курс по гитаре.
Подарок от PrimaNota.Ru, забирай!