PrimaNota.ru - самый крупный в мире бесплатный архив песенных текстов, аккордов, табулатур и нот


12 Stones - Bulletproof - таба, видео

Регистрация Запомнить меня
Войти через:  Facebook Google Twitter Vk Yandex Mail.ru

12 Stones - Bulletproof - таба, видео

Печатать
Просмотров: 311
Уроки эстрадного вокала в Санкт-Петербурге
Авторы: Skidd Mills, Eric Weaver, Justin Rimer, Paul McCoy

"Bulletproof"
12 Stones

This is my first tab and I am sure that it is mostly right. Leave any comments if you 
see something you think should be changed. Enjoy!
****************
~ Let note ring
h Hammer on
/ Slide down
D Down Stroke
U Up Stroke
****************
Drop C

-----------
Lead guitar
-----------

Intro Riff
D|---------------------------------------------------------------------|
A|---------------------------------------------------------------------|
F|---------------------------------------------------------------------|
C|-------3-------------3---------5--------3-------------3---------5-5--|
G|---------5-0-3h5-------5-0-3h5-3----------5-0-3h5-------5-0-3h5-3-3--|
C|-0-3-5-----------3h5--------------0-3-5-----------3h5----------------|

  D U D U
D|-3-3-3-3-5-5-5-5---------------------------------------------------|
A|-3-3-3-3-5-5-5-5---------------------------------------------------|
F|-3-3-3-3-5-5-5-5---------------------------------------------------|
C|-3-3-3-3-5-5-5-5---------------------------------------------------|
G|-3-3-3-3-5-5-5-5---------------------------------------------------|
C|-3-3-3-3-5-5-5-5---------------------------------------------------|

Verse (Tremolo/Phaser)
D|-------------------------------------------------------------------|
A|---------------9~~~------------------------------------------------|
F|-9~~~~~~~~~~~~~~~~~9-----------------------------------------------|
C|------------9~~~~~~~-----------------------------------------------|
G|-------------------------------------------------------------------|
C|-------------------------------------------------------------------|

Chorus
D|---------------------------------------------------------------------|
A|---------------------------------------------------------------------|
F|---------------------------------------------------------------------|
C|-------3-------------3---------5--------3-------------3---------5-5--|
G|---------5-0-3h5-------5-0-3h5-3----------5-0-3h5-------5-0-3h5-3-3--|
C|-0-3-5-----------3h5--------------0-3-5-----------3h5----------------|

  D U D U                                        D U D U
D|-5-5-5-5---------------------------------------5-5-5-5---------------|
A|-5-5-5-5---------------------------------------5-5-5-5---------------|
F|-5-5-5-5---------------------------------------5-5-5-5---------------|
C|-5-5-5-5------5-5-5-10-10-10-5-5-5-7-7-7-5-5-5-5-5-5-5---------------|
G|-5-5-5-5--0-0-3-3-3-8--8--8--3-3-3-5-5-5-3-3-3-5-5-5-5---------------|
C|-5-5-5-5---------------------------------------5-5-5-5---------------|

Re-intro Riff
D|-------------------------------------------------------------------|
A|-------------------------------------------------------------------|
F|-------------------------------------------------------------------|
C|-7-7-7-------------------3---7-7-7---------------------------------|
G|-5-5-5-7-7-7-8-8-8---------5-5-5-5-7-7-7-8-8-8---------------------|
C|-------7-7-7-8-8-8-0-3-5-----------7-7-7-8-8-8---------------------|

Verse
Chorus

Bridge Riff
D|-0-----------------------------------------------------------------|
A|-3-----------------------------------------------------------------|
F|-2-----------------------------------------------------------------|
C|-0-----------------------------------------------------------------|
G|-0-----------------------------------------------------------------|
C|-0------9/0--0-0-0-d-0-0-0-d-0-0-0-d-0-0-0-0-d-0--0--0-d-0-0-0-d-3-|


D|-------------------------------------------------------------------|
A|-------------------------------------------------------------------|
F|-------------------------------------------------------------------|
C|-------------------------------------------------------------------|
G|-------------------------------------------------------------------|
C|-0-0-0---0-0-0---0-0-0---0-0-0-0----0--0--0---0-0-0---3------------|

Solo    (Played with Slide)
D|----------14-14----------------------------------------------------|
A|----------14-14----------------------------------------------------|
F|-------------------------------------------------------------------|
C|-7/9/10---------7/9/10---4(walk up to harmonic)--------------------|
G|-------------------------------------------------------------------|
C|-------------------------------------------------------------------|


Chorus
Outro(Same As Re-intro)
Добавлено: 18.07.2013
Другие материалы по этой песне:
  • Аккорды и текст

Страница создана 18.07.2013
http://primanota.ru/12-stones/bulletproof-chords.htm
Привет, Гость.
Предлагаем пройти революционный курс по гитаре.
Подарок от PrimaNota.Ru, забирай!