PrimaNota.ru - самый крупный в мире бесплатный архив песенных текстов, аккордов, табулатур и нот


12 Rods - Glad That Its Over - таба, бас-таба, видео

Регистрация Запомнить меня
Войти через:  Facebook Google Twitter Vk Yandex Mail.ru

12 Rods - Glad That Its Over - таба, бас-таба, видео

Печатать
Просмотров: 151
I was browsing the request queue and trying random songs and this one sounded pretty awesome so I tabbed it.

I'm also putting up the bass tab of this and the Guitar Pro, the latter of which will be best for getting the
right timings. Two guitars on this track, hopefully it makes sense!

Enjoy.

Intro:

E||----------------------------|--------------------------|
B||----------------------------|--------------------------|
G||----------------------------|--------------------------|
D||--9--9--x-x-8-----9--x-x-8--|--9--9--x-x-8-----9-------|
A||--7--7--x-x-7-----7--x-x-7--|--7--7--x-x-7-----7-------|
E||----------------------------|--------------------------|

----------------------------|------------------------|
----------------------------|------------------------|
----------------------------|------------------------|
--9--9--x-x-8-----9--x-x-8--|--9--9--x-x-8-----------|
--7--7--x-x-7-----7--x-x-7--|--7--7--x-x-7-----------|
----------------------------|------------------------|


Verse - Guitar 1

----------------------------|----------------------------|
----------------------------|----------------------------|
--9--9------9-----9------9--|--9--9------9-----9------9--|
--9--9--x-x-8-----9--x-x-8--|--9--9--x-x-8-----9--x-x-8--|
--7--7--x-x-7-----7--x-x-7--|--7--7--x-x-7-----7--x-x-7--|
----------------------------|----------------------------|

----------------------------|----------------------------|
-----5----------------------|-----5----------------------|
--6--6------6-----6------6--|--6--6------6-----6------6--|
--6--6--x-x-5-----6--x-x-5--|--6--6--x-x-5-----6--x-x-5--|
--4--4--x-x-4-----4--x-x-4--|--4--4--x-x-4-----4--x-x-4--|
----------------------------|----------------------------|

----------------------------|----------------------------|--------0------------|
-----2----------------------|-----2----------------------|--------2------------|
--2--2------2-----2------2--|--2--2------2-----2------2--|--------2------------|
--2--2--x-x-1-----2--x-x-1--|--2--2--x-x-1-----2--x-x-1--|--2--2--2------------|
--0--0--x-x-0-----0--x-x-0--|--0--0--x-x-0-----0--x-x-0--|--0--0--0------------|
----------------------------|----------------------------|---------------------|

--------------------------|----------------------------|
--2--2--2--2--2--2--2--0--|----------------------------|
--2--2--2--2--2--2--2--0--|--9--9------9-----9------9--|
--2--2--2--2--2--2--2--0--|--9--9--x-x-8-----9--x-x-8--|
--0--0--0--0--0--0--0--0--|--7--7--x-x-7-----7--x-x-7--|
--------------------------|----------------------------|

----------------------------|----------------------------|
----------------------------|-----5----------------------|
--9--9------9-----9------9--|--6--6------6-----6------6--|
--9--9--x-x-8-----9--x-x-8--|--6--6--x-x-5-----6--x-x-5--|
--7--7--x-x-7-----7--x-x-7--|--4--4--x-x-4-----4--x-x-4--|
----------------------------|----------------------------|

----------------------------|----------------------------|
-----5----------------------|-----2----------------------|
--6--6------6-----6------6--|--2--2------2-----2------2--|
--6--6--x-x-5-----6--x-x-5--|--2--2--x-x-1-----2--x-x-1--|
--4--4--x-x-4-----4--x-x-4--|--0--0--x-x-0-----0--x-x-0--|
----------------------------|----------------------------|

----------------------------|
-----2----------------------|
--2--2------2-----2------2--|
--2--2--x-x-1-----2--x-x-1--|
--0--0--x-x-0-----0--x-x-0--|
----------------------------|

Verse Guitar 2:

-------------------|--------------------------|--------------------------|
-------------------|--------------------------|--------------------------|
-------------------|--------------------------|--------------------------|
-------------------|--9--9-----8-----9-----8--|--9--9-----8-----9-----8--|
-------------------|--------------------------|--------------------------|
-------------------|--------------------------|--------------------------|

--------------------------|--------------------------|
--------------------------|--------------------------|
--------------------------|--------------------------|
--6--6-----5-----6-----5--|--6--6-----5-----6-----5--|
--------------------------|--------------------------|
--------------------------|--------------------------|

--------------------------|--------------------------|---------------------|
--------------------------|--------------------------|---------------------|
--------------------------|--------------------------|---------------------|
--2--2-----1-----2-----1--|--2--2-----1-----2-----1--|--2--2--2------------|
--------------------------|--------------------------|---------------------|
--------------------------|--------------------------|---------------------|

-------------------|-------------------------------|
-------------------|--12--12-----11-----12-----11--|
-------------------|-------------------------------|
--2----------------|-------------------------------|
-------------------|-------------------------------|
-------------------|-------------------------------|

-------------------------------|--------------------------|
--12--12-----11-----12-----11--|--9--9-----8-----9-----8--|
-------------------------------|--------------------------|
-------------------------------|--------------------------|
-------------------------------|--------------------------|
-------------------------------|--------------------------|

--------------------------|--------------------------|
--9--9-----8-----9-----8--|--5--5-----4-----5-----4--|
--------------------------|--------------------------|
--------------------------|--------------------------|
--------------------------|--------------------------|
--------------------------|--------------------------|

--------------------------|--------------------------|
--5--5-----4-----5-----4--|--3--3-----3-----3-----3--|
--------------------------|--------------------------|
--------------------------|--------------------------|
--------------------------|--------------------------|
--------------------------|--------------------------|

--------------------------|
--3--3--3--3--3--3--3--3--|
--------------------------|
--------------------------|
--------------------------|
--------------------------|

Pre-chorus and Chorus riffs

--------------------------|--------------------------|--------------------------|
--------------------------|--------------------------|--------------------------|
--5--5-----5-----5-----5--|--5--5--5--5--5--5--5--5--|--7--7--7--7--7--7--7--7--|
--5--5-----5-----5-----5--|--5--5--5--5--5--5--5--5--|--7--7--7--7--7--7--7--7--|
--3--3-----3-----3-----3--|--3--3--3--3--3--3--3--3--|--5--5--5--5--5--5--5--5--|
--------------------------|--------------------------|--------------------------|

--------------------------|--------------------------|
--------------------------|--3--3--3--3--3--3--3--3--|
--------------------------|--4--4--4--4--4--4--4--4--|
--5--5--5--5--5--5--5--5--|--4--4--4--4--4--4--4--4--|
--5--5--5--5--5--5--5--5--|--2--2--2--2--2--2--2--2--|
--3--3--3--3--3--3--3--3--|--------------------------|

--------------------------|--------------------------|
--------------------------|--------------------------|
--------------------------|--------------------------|
--5--5--5--5--5--5--5--5--|--2--2--2--2--2--2--2--2--|
--5--5--5--5--5--5--5--5--|--2--2--2--2--2--2--2--2--|
--3--3--3--3--3--3--3--3--|--0--0--0--0--0--0--0--0--|

--------------------------|--------------------------|
--2--2--2--2--2--2--2--2--|--------------------------|
--2--2--2--2--2--2--2--2--|--------------------------|
--2--2--2--2--2--2--2--2--|--5--5--5--5--5--5--5--5--|
--0--0--0--0--0--0--0--0--|--5--5--5--5--5--5--5--5--|
--------------------------|--3--3--3--3--3--3--3--3--|

End of chorus, pre-verse and verse:

--------------------------|----------------------------|
--------------------------|----------------------------|
--------------------------|--9--9------9-----9------9--|
--5--5--5--5--5--5--5--5--|--9--9--x-x-8-----9--x-x-8--|
--5--5--5--5--5--5--5--5--|--7--7--x-x-7-----7--x-x-7--|
--3--3--3--3--3--3--3--3--|----------------------------|

--------------------------|----------------------------|
--------------------------|----------------------------|
--9--9------9-----9-------|--9--9------9-----9------9--|
--9--9--x-x-8-----9-------|--9--9--x-x-8-----9--x-x-8--|
--7--7--x-x-7-----7-------|--7--7--x-x-7-----7--x-x-7--|
--------------------------|----------------------------|

------------------------|----------------------------|
------------------------|----------------------------|
--9--9------9-----------|--9--9------9-----9------9--|
--9--9--x-x-8-----------|--9--9--x-x-8-----9--x-x-8--|
--7--7--x-x-7-----------|--7--7--x-x-7-----7--x-x-7--|
------------------------|----------------------------|

----------------------------|----------------------------|
----------------------------|-----5----------------------|
--9--9------9-----9------9--|--6--6------6-----6------6--|
--9--9--x-x-8-----9--x-x-8--|--6--6--x-x-5-----6--x-x-5--|
--7--7--x-x-7-----7--x-x-7--|--4--4--x-x-4-----4--x-x-4--|
----------------------------|----------------------------|

----------------------------|----------------------------|
-----5----------------------|-----2----------------------|
--6--6------6-----6------6--|--2--2------2-----2------2--|
--6--6--x-x-5-----6--x-x-5--|--2--2--x-x-1-----2--x-x-1--|
--4--4--x-x-4-----4--x-x-4--|--0--0--x-x-0-----0--x-x-0--|
----------------------------|----------------------------|

----------------------------|--------0------------|--------------------------|
-----2----------------------|--------2------------|--2--2--2--2--2--2--2--0--|
--2--2------2-----2------2--|--------2------------|--2--2--2--2--2--2--2--0--|
--2--2--x-x-1-----2--x-x-1--|--2--2--2------------|--2--2--2--2--2--2--2--0--|
--0--0--x-x-0-----0--x-x-0--|--0--0--0------------|--0--0--0--0--0--0--0--0--|
----------------------------|---------------------|--------------------------|

----------------------------|----------------------------|
----------------------------|----------------------------|
--9--9------9-----9------9--|--9--9------9-----9------9--|
--9--9--x-x-8-----9--x-x-8--|--9--9--x-x-8-----9--x-x-8--|
--7--7--x-x-7-----7--x-x-7--|--7--7--x-x-7-----7--x-x-7--|
----------------------------|----------------------------|

----------------------------|----------------------------|
-----5----------------------|-----5----------------------|
--6--6------6-----6------6--|--6--6------6-----6------6--|
--6--6--x-x-5-----6--x-x-5--|--6--6--x-x-5-----6--x-x-5--|
--4--4--x-x-4-----4--x-x-4--|--4--4--x-x-4-----4--x-x-4--|
----------------------------|----------------------------|

----------------------------|----------------------------|
-----2----------------------|-----2----------------------|
--2--2------2-----2------2--|--2--2------2-----2------2--|
--2--2--x-x-1-----2--x-x-1--|--2--2--x-x-1-----2--x-x-1--|
--0--0--x-x-0-----0--x-x-0--|--0--0--x-x-0-----0--x-x-0--|
----------------------------|----------------------------|

Pre-chorus

--------------------------|--------------------------|
--------------------------|--------------------------|
--5--5-----5-----5-----5--|--5--5--5--5--5--5--5--5--|
--5--5-----5-----5-----5--|--5--5--5--5--5--5--5--5--|
--3--3-----3-----3-----3--|--3--3--3--3--3--3--3--3--|
--------------------------|--------------------------|

Chorus

--------------------------|--------------------------|
--------------------------|--------------------------|
--7--7--7--7--7--7--7--7--|--------------------------|
--7--7--7--7--7--7--7--7--|--5--5--5--5--5--5--5--5--|
--5--5--5--5--5--5--5--5--|--5--5--5--5--5--5--5--5--|
--------------------------|--3--3--3--3--3--3--3--3--|

--------------------------|--------------------------|
--3--3--3--3--3--3--3--3--|--------------------------|
--4--4--4--4--4--4--4--4--|--------------------------|
--4--4--4--4--4--4--4--4--|--5--5--5--5--5--5--5--5--|
--2--2--2--2--2--2--2--2--|--5--5--5--5--5--5--5--5--|
--------------------------|--3--3--3--3--3--3--3--3--|

--------------------------|--------------------------|
--------------------------|--2--2--2--2--2--2--2--2--|
--------------------------|--2--2--2--2--2--2--2--2--|
--2--2--2--2--2--2--2--2--|--2--2--2--2--2--2--2--2--|
--2--2--2--2--2--2--2--2--|--0--0--0--0--0--0--0--0--|
--0--0--0--0--0--0--0--0--|--------------------------|

--------------------------|--------------------------|
--------------------------|--------------------------|
--------------------------|--------------------------|
--5--5--5--5--5--5--5--5--|--5--5--5--5--5--5--5--5--|
--5--5--5--5--5--5--5--5--|--5--5--5--5--5--5--5--5--|
--3--3--3--3--3--3--3--3--|--3--3--3--3--3--3--3--3--|

Guitar 'solo' Guitar 1:

--------------------------|--------------------------|
--------------------------|--------------------------|
--------------------------|--------------------------|
--2--2-----2-----2-----2--|--2--2-----2-----2-----2--|
--2--2-----2-----2-----2--|--2--2-----2-----2-----2--|
--0--0-----0-----0-----0--|--0--0-----0-----0-----0--|

--------------------------|--------------------------|
--5--5-----5-----5--------|--5--5-----5-----5-----5--|
--6--6-----6-----6-----6--|--6--6-----6-----6-----6--|
--6--6-----6-----6-----6--|--6--6-----6-----6-----6--|
--4--4-----4-----4-----4--|--4--4-----4-----4-----4--|
--------------------------|--------------------------|

--------------------------|--------------------------|--------0------------|
--2--2--------------------|--2--2--------------------|--------0------------|
--2--2-----2-----2-----2--|--2--2-----2-----2-----2--|--------2------------|
--2--2-----2-----2-----2--|--2--2-----2-----2-----2--|--2--2--2------------|
--0--0-----0-----0-----0--|--0--0-----0-----0-----0--|--0--0--0------------|
--------------------------|--------------------------|---------------------|

-------------------|--------------------------|--------------------------|
-------------------|--------------------------|--------------------------|
--4----------------|--------------------------|--------------------------|
--4----------------|--2--2-----2-----2-----2--|--2--2-----2-----2-----2--|
--2----------------|--2--2-----2-----2-----2--|--2--2-----2-----2-----2--|
-------------------|--0--0-----0-----0-----0--|--0--0-----0-----0-----0--|

--------------------------|--------------------------|
--5--5-----5-----5--------|--5--5-----5-----5-----5--|
--6--6-----6-----6-----6--|--6--6-----6-----6-----6--|
--6--6-----6-----6-----6--|--6--6-----6-----6-----6--|
--4--4-----4-----4-----4--|--4--4-----4-----4-----4--|
--------------------------|--------------------------|

--------------------------|--------------------------|
--2--2--------------------|--2--2--------------------|
--2--2-----2-----2-----2--|--2--2-----2-----2-----2--|
--2--2-----2-----2-----2--|--2--2-----2-----2-----2--|
--0--0-----0-----0-----0--|--0--0-----0-----0-----0--|
--------------------------|--------------------------|

--------------------------|--------------------------|
--------------------------|--------------------------|
--5--5-----5-----5-----5--|--5--5--5--5--5--5--5--5--|
--5--5-----5-----5-----5--|--5--5--5--5--5--5--5--5--|
--3--3-----3-----3-----3--|--3--3--3--3--3--3--3--3--|
--------------------------|--------------------------|

Guitar 'Solo' Guitar 2:

-------------------------------------------------|
-------------------------------------------------|
--11s-13-13-13-13--x-13-13-13--x-11--x-9-x-11--x-|
-------------------------------------------------|
---9s-11-11-11-11--x-11-11-11--x--9--x-7-x--9--x-|
-------------------------------------------------|

-------------------------------------------------|
-------------------------------------------------|
--11s-13-13-13-13--x-13-13-13--x-11--x-9-x-11--x-|
-------------------------------------------------|
---9s-11-11-11-11--x-11-11-11--x--9--x-7-x--9--x-|
-------------------------------------------------|

-------------------------------------------------|
-------------------------------------------------|
--11s-13-13-13-13--x-13-13-13--x-11--x-9-x-11--x-|
-------------------------------------------------|
---9s-11-11-11-11--x-11-11-11--x--9--x-7-x--9--x-|
-------------------------------------------------|

-------------------------------------------------|
-------------------------------------------------|
--11s-13-13-13-13--x-13-13-13--x-11--x-9-x-11--x-|
-------------------------------------------------|
---9s-11-11-11-11--x-11-11-11--x--9--x-7-x--9--x-|
-------------------------------------------------|

-------------------------------------------------|
-------------------------------------------------|
--11s-13-13-13-13--x-13-13-13--x-11--x-9-x-11--x-|
-------------------------------------------------|
---9s-11-11-11-11--x-11-11-11--x--9--x-7-x--9--x-|
-------------------------------------------------|

-------------------------------------------------|----------------------|
-------------------------------------------------|----------------------|
--11s-13-13-13-13--x-13-13-13--x-11--x-9-x-11--x-|--9----9--------\6----|
-------------------------------------------------|----------------------|
---9s-11-11-11-11--x-11-11-11--x--9--x-7-x--9--x-|--7----7--------\4----|
-------------------------------------------------|----------------------|

-------------------------|-------------------------------------------------|
-------------------------|-------------------------------------------------|
--4--------L--4-6-9--11--|--11s-13-13-13-13--x-13-13-13--x-11--x-9-x-11--x-|
-------------------------|-------------------------------------------------|
--2--------L--2-4-7---9--|---9s-11-11-11-11--x-11-11-11--x--9--x-7-x--9--x-|
-------------------------|-------------------------------------------------|

-------------------------------------------------|
-------------------------------------------------|
--11s-13-13-13-13--x-13-13-13--x-11--x-9-x-11--x-|
-------------------------------------------------|
---9s-11-11-11-11--x-11-11-11--x--9--x-7-x--9--x-|
-------------------------------------------------|

-------------------------------------------------|
-------------------------------------------------|
--11s-13-13-13-13--x-13-13-13--x-11--x-9-x-11--x-|
-------------------------------------------------|
---9s-11-11-11-11--x-11-11-11--x--9--x-7-x--9--x-|
-------------------------------------------------|

-------------------------------------------------|
-------------------------------------------------|
--11s-13-13-13-13--x-13-13-13--x-11--x-9-x-11--x-|
-------------------------------------------------|
---9s-11-11-11-11--x-11-11-11--x--9--x-7-x--9--x-|
-------------------------------------------------|

-------------------------------------------------|
-------------------------------------------------|
--11s-13-13-13-13--x-13-13-13--x-11--x-9-x-11--x-|
-------------------------------------------------|
---9s-11-11-11-11--x-11-11-11--x--9--x-7-x--9--x-|
-------------------------------------------------|

-------------------------------------------------|
-------------------------------------------------|
--11s-13-13-13-13--x-13-13-13--x-11--x-9-x-11--x-|
-------------------------------------------------|
---9s-11-11-11-11--x-11-11-11--x--9--x-7-x--9--x-|
-------------------------------------------------|

-------------------------------------------|--------------------------|
-------------------------------------------|--------------------------|
--11-12-12-12-12-11-11-11-11-9-9-9-9-7-7-7-|--7--5--5--5--5--5--5--5--|
-------------------------------------------|--------------------------|
---9-10-10-10-10--9--9--9--9-7-7-7-7-5-5-5-|--5--3--3--3--3--3--3--3--|
-------------------------------------------|--------------------------|

Chorus

--------------------------|--------------------------|
--------------------------|--------------------------|
--7--7--7--7--7--7--7--7--|--------------------------|
--7--7--7--7--7--7--7--7--|--5--5--5--5--5--5--5--5--|
--5--5--5--5--5--5--5--5--|--5--5--5--5--5--5--5--5--|
--------------------------|--3--3--3--3--3--3--3--3--|

--------------------------|--------------------------|
--3--3--3--3--3--3--3--3--|--------------------------|
--4--4--4--4--4--4--4--4--|--------------------------|
--4--4--4--4--4--4--4--4--|--5--5--5--5--5--5--5--5--|
--2--2--2--2--2--2--2--2--|--5--5--5--5--5--5--5--5--|
--------------------------|--3--3--3--3--3--3--3--3--|

--------------------------|--------------------------|
--------------------------|--2--2--2--2--2--2--2--2--|
--------------------------|--2--2--2--2--2--2--2--2--|
--2--2--2--2--2--2--2--2--|--2--2--2--2--2--2--2--2--|
--2--2--2--2--2--2--2--2--|--0--0--0--0--0--0--0--0--|
--0--0--0--0--0--0--0--0--|--------------------------|

--------------------------|--------------------------|
--------------------------|--------------------------|
--------------------------|--------------------------|
--5--5--5--5--5--5--5--5--|--5--5--5--5--5--5--5--5--|
--5--5--5--5--5--5--5--5--|--5--5--5--5--5--5--5--5--|
--3--3--3--3--3--3--3--3--|--3--3--3--3--3--3--3--3--|

Out-Chorus

--------------------------|--------------------------|
--------------------------|--------------------------|
--------------------------|--2--2--2--2--2--2--2--2--|
--2--2--2--2--2--2--2--2--|--2--2--2--2--2--2--2--2--|
--2--2--2--2--2--2--2--2--|--0--0--0--0--0--0--0--0--|
--0--0--0--0--0--0--0--0--|--------------------------|

--------------------------|--------------------------|
--5--5--5--5--5--5--5--5--|--------------------------|
--6--6--6--6--6--6--6--6--|--2--2--2--2--2--2--2--2--|
--6--6--6--6--6--6--6--6--|--2--2--2--2--2--2--2--2--|
--4--4--4--4--4--4--4--4--|--0--0--0--0--0--0--0--0--|
--------------------------|--------------------------|

--------------------------|--------------------------|
--------------------------|--2--2--2--2--2--2--2--2--|
--------------------------|--2--2--2--2--2--2--2--2--|
--2--2--2--2--2--2--2--2--|--2--2--2--2--2--2--2--2--|
--2--2--2--2--2--2--2--2--|--0--0--0--0--0--0--0--0--|
--0--0--0--0--0--0--0--0--|--------------------------|

--------------------------|--------------------------|
--------------------------|--------------------------|
--------------------------|--------------------------|
--5--5--5--5--5--5--5--5--|--5--5--5--5--5--5--5--5--|
--5--5--5--5--5--5--5--5--|--5--5--5--5--5--5--5--5--|
--3--3--3--3--3--3--3--3--|--3--3--3--3--3--3--3--3--|


Outro

----------------------------|--------------------------|
----------------------------|--------------------------|
--9--9------9-----9------9--|--9--9------9-----9-------|
--9--9--x-x-8-----9--x-x-8--|--9--9--x-x-8-----9-------|
--7--7--x-x-7-----7--x-x-7--|--7--7--x-x-7-----7-------|
----------------------------|--------------------------|

----------------------------|---------------------||
----------------------------|---------------------||
--9--9------9-----9------9--|--9\-----------------||
--9--9--x-x-8-----9--x-x-8--|--9\-----------------||
--7--7--x-x-7-----7--x-x-7--|--7\-----------------||
----------------------------|---------------------||

Out-chorus and outro guitar 2:

----------------------------------|----------------------------------|
----------------------------------|----------------------------------|
--13--13--13--13--13--13--13--13--|--13--13--13--13--13--13--13--13--|
----------------------------------|----------------------------------|
--11--11--11--11--11--11--11--11--|--11--11--11--11--11--11--11--11--|
----------------------------------|----------------------------------|


   E   E   E   E   E   E   E   E      E   E   E   E   E   E   E   E   
----------------------------------|----------------------------------|
----------------------------------|----------------------------------|
--13--13--13--13--13--13--13--13--|--13--13--13--13--13--13--13--13--|
----------------------------------|----------------------------------|
--11--11--11--11--11--11--11--11--|--11--11--11--11--11--11--11--11--|
----------------------------------|----------------------------------|


  E  E  H.              Q    H.               E   E   E   E   E   E   E   E   
--------0------------|-------0------------|----------------------------------|
--------0------------|-------0------------|----------------------------------|
--------9------------|-------6------------|--16--16--15--15--16--16--15--15--|
--------9------------|-------7------------|----------------------------------|
--------7------------|--0----0------------|--14--14--13--13--14--14--13--13--|
--0--0---------------|--------------------|----------------------------------|


   E   E   E   E   E   E   E   E      E   E  E   E  E   E  E   E   
----------------------------------|-------------------------------|
----------------------------------|--12--12-----11-----12-----11--|
--16--16--16--16--16--16--16--16--|-------------------------------|
----------------------------------|-------------------------------|
--14--14--14--14--14--14--14--14--|-------------------------------|
----------------------------------|-------------------------------|


   E   E  E   E  E   E  Q        E   E  E   E  E   E  E   E   
-----------------------------|-------------------------------|
--12--12-----11-----12-------|--12--12-----11-----12-----11--|
-----------------------------|-------------------------------|
-----------------------------|-------------------------------|
-----------------------------|-------------------------------|
-----------------------------|-------------------------------|


   Q     H.                   
----------------------|-----||
--12\-----------------|-----||
----------------------|-----||
----------------------|-----||
----------------------|-----||
----------------------|-----||
Добавлено: 25.07.2015
Другие материалы по этой песне:

Страница создана 05.08.2014
http://primanota.ru/12-rods/glad-that-its-over-chords.htm
Привет, Гость.
Предлагаем пройти революционный курс по гитаре.
Подарок от PrimaNota.Ru, забирай!