PrimaNota.ru - самый крупный в мире бесплатный архив песенных текстов, аккордов, табулатур и нот


1017 - Nobena - таба, видео

Регистрация Запомнить меня
Войти через:  Facebook Google Twitter Vk Yandex Mail.ru

1017 - Nobena - таба, видео

Печатать
Просмотров: 178
Title: Nobena
Artist: 1017

For any comments and suggestions:

Text Me: 09198408399
Friendster: boybassista@yahoo.com


Intro:

Guitar 1:                Guitar 2:
e-------------------|--------------|
b-------------------|--------------|
g-------------------|---4444-------|
D-------------------|---4444-------|
A-666-888-666/1111--|---2222-------| 2x
E-------------------|--------------|

Verse :

(Not sure..nakakalito un riff dito)
Oras na pala
e-----------------------------------------------|
b-----------------------------------------------|
g-----------------------------------------------|
D-----1212-11-11--------------88----------------|
A--55------------12-10-9---33----11111-999-777--|
E-----------------------------------------------|

Takipsilim...
e-----------------------------------------------|
b-----------------------------------------------|
g-----------------------------------------------|
D-----1212-11-11--------------88----------------|
A--55------------12-10-9---33----11111-999-777--|
E-----------------------------------------------|

Nagtatanong kung....
e-----------------------|
b-----------------------|
g-----------------------|
D-55555---777777--7~----|
A-55555---777777--7~----|
E-33333---555555--5~----|

Intro:

Guitar 1:                Guitar 2:
e-------------------|--------------|
b-------------------|--------------|
g-------------------|---4444-------|
D-------------------|---4444-------|
A-666-888-666/1111--|---2222-------| 2x
E-------------------|--------------|

Verse:

Guitar 2: (just play D-Bm use powerchords)

Guitar 1:(will do the riff)

Sa bawat oras..
e-----------------------------------------------|
b-----------------------------------------------|
g-----------------------------------------------|          
D-----1212-11-11--------------88----------------|
A--55------------12-10-9---33----11111-999-777--|
E-----------------------------------------------|

Buhay pa...
e-----------------------------------------------|
b-----------------------------------------------|
g-----------------------------------------------|
D-----1212-11-11--------------88----------------|
A--55------------12-10-9---33----11111-999-777--|
E-----------------------------------------------|

Nagtatanong sa..
e-----------------------|
b-----------------------|
g-----------------------|
D-55555---777777--7~----|
A-55555---777777--7~----|
E-33333---555555--5~----|

Chorus:

Guitar 1:
Fill-in
                                   or you can use this
e------16----16-----16-----16-|-----17-----17-------17-------17-----17---|
b-1415---1415---1415---1415---|-1415---1415---1415-------1415---1415-----|
g-----------------------------|------------------------------------------|
D-----------------------------|------------------------------------------| 
A-----------------------------|------------------------------------------|
E-----------------------------|------------------------------------------|

Guitar 2:
Ilang ulit ...
e------------------------------|
b------------------------------|
g---77777---4444---------------|
D---77777---4444---5555---7777-|
A---55555---2222---5555---7777-|
E------------------3333---5555-|

Ilang ulit....
e------------------------------|
b------------------------------|
g---77777---4444---------------|
D---77777---4444---5555---7777-|
A---55555---2222---5555---7777-|
E------------------3333---5555-|

Intro:

Guitar 1:                Guitar 2:
e-------------------|--------------|
b-------------------|--------------|
g-------------------|---4444-------|
D-------------------|---4444-------|
A-666-888-666/1111--|---2222-------| 2x
E-------------------|--------------|

VErse:

Lamig ng...
e-----------------------------------------------|
b-----------------------------------------------|
g-----------------------------------------------|
D-----1212-11-11--------------88----------------|
A--55------------12-10-9---33----11111-999-777--|
E-----------------------------------------------|

Bilanggo....
e-----------------------------------------------|
b-----------------------------------------------|
g-----------------------------------------------|
D-----1212-11-11--------------88----------------|
A--55------------12-10-9---33----11111-999-777--|
E-----------------------------------------------|

Hinahanda...
e-----------------------|
b-----------------------|
g-----------------------|
D-55555---777777--7~----|
A-55555---777777--7~----|
E-33333---555555--5~----|

Intro:

Guitar 1:                Guitar 2:
e-------------------|--------------|
b-------------------|--------------|
g-------------------|---4444-------|
D-------------------|---4444-------|
A-666-888-666/1111--|---2222-------| 2x
E-------------------|--------------|

Sa bawat ...
e-----------------------------------------------|
b-----------------------------------------------|
g-----------------------------------------------|
D-----1212-11-11--------------88----------------|
A--55------------12-10-9---33----11111-999-777--|
E-----------------------------------------------|
Buhay p...
e-----------------------------------------------|
b-----------------------------------------------|
g-----------------------------------------------|
D-----1212-11-11--------------88----------------|
A--55------------12-10-9---33----11111-999-777--|
E-----------------------------------------------|

Nagtatanong..
e-----------------------|
b-----------------------|
g-----------------------|
D-55555---777777--7~----|
A-55555---777777--7~----|
E-33333---555555--5~----|

Chorus:

Guitar 1:
Fill-in

e------16----16-----16-----16-|
b-1415---1415---1415---1415---|
g-----------------------------|
D-----------------------------| repeat
A-----------------------------|
E-----------------------------|

Guitar 2:
Ilang ulit ...
e------------------------------|
b------------------------------|
g---77777---4444---------------|
D---77777---4444---5555---7777-|
A---55555---2222---5555---7777-|
E------------------3333---5555-|

Ilang ulit....
e------------------------------|
b------------------------------|
g---77777---4444---------------|
D---77777---4444---5555---7777-|
A---55555---2222---5555---7777-|
E------------------3333---5555-|

Adlib:
Chorus:


Добавлено: 12.08.2013
Другие материалы по этой песне:
  • Аккорды и текст

Страница создана 12.08.2013
http://primanota.ru/1017/nobena-chords.htm
Привет, Гость.
Предлагаем пройти революционный курс по гитаре.
Подарок от PrimaNota.Ru, забирай!