PrimaNota.ru - самый крупный в мире бесплатный архив песенных текстов, аккордов, табулатур и нот


1000 Travels Of Jawaharlal - With Smile And Slobber - таба, видео

Регистрация Запомнить меня
Войти через:  Facebook Google Twitter Vk Yandex Mail.ru

1000 Travels Of Jawaharlal - With Smile And Slobber - таба, видео

Печатать
Просмотров: 365
www.myspace.com/1000travels  

1000 Travels of Jawaharlal - With Smile And Slobber
Credit: Billybusa (me)
Tuning: 1/2 Step Down

VERSE:
D#||------------------------------|------------------------------|
A#||--5--5-5--5-5-5--5-5-5--5-5-5-|------------------------------|
F#||--x--x-x--x-x-x--x-x-x--x-x-x-|------------------------------|
C#||--5--5-5--5-5-5--5-5-5--5-5-5-|--5--5-5--5-5-5--5-5-5--5-5-5-|
G#||--7--7-7--7-7-7--7-7-7--7-7-7-|--7--7-7--7-7-7--7-7-7--7-7-7-|
D#||------------------------------|--8--8-8--8-8-8--8-8-8--8-8-8-|

------------------------------|------------------------------|
--5--5-5--5-5-5--5-5-5--5-5-5-|------------------------------|
--x--x-x--x-x-x--x-x-x--x-x-x-|------------------------------|
--5--5-5--5-5-5--5-5-5--5-5-5-|--5--5-5--5-5-5--5-9-9--9-5-5-| x4
--7--7-7--7-7-7--7-7-7--7-7-7-|--7--7-7--7-7-7--7-7-7--7-7-7-|
------------------------------|--8--8-8--8-8-8--8-8-8--8-8-8-|

PRE CHORUS:
------------------------------|------------------------------|
------------------------------|------------------------------|
------------------------------|----------------5--5-5-4--4-4-|
--2--2-2--2-2-2-4--4-4--4-4-4-|--5--5-5--5-5-5-x--x-x-x--x-x-|
--2--2-2--2-2-2-4--4-4--4-4-4-|--5--5-5--5-5-5-3--3-3-2--2-2-|
--0--0-0--0-0-0-2--2-2--2-2-2-|--3--3-3--3-3-3---------------|

CHORUS:
--------------------------|--------------------------|
--------------------------|--------------------------|
--------------------------|--------------------------|
------------9-------9-----|------------9-------9-----|
-------7------------------|-------7------------------|
--8--------------8------7-|--8--------------8------7-|

--------------------------|--------------------------|
--------------------------|--------------------------|
--------------------------|--------------------------|
------------9-------9-----|------------9-------9-----|
-------7------------------|-------7------------------|
--8--------------8------7-|--8--------------8------7-|

------------------------------|------------------------------|
------------------------------|------------------------------|
------------------------------|----------------5--5-5-4--4-4-|
--2--2-2--2-2-2-4--4-4--4-4-4-|--5--5-5--5-5-5-x--x-x-x--x-x-|
--2--2-2--2-2-2-4--4-4--4-4-4-|--5--5-5--5-5-5-3--3-3-2--2-2-|
--0--0-0--0-0-0-2--2-2--2-2-2-|--3--3-3--3-3-3---------------|

--------------------------|--------------------------|
--------------------------|--------------------------|
--------------------------|--------------------------|
------------9-------9-----|------------9-------9-----|
-------7------------------|-------7------------------|
--8--------------8------7-|--8--------------8------7-|

--------------------------|--------------------------|
--------------------------|--------------------------|
--------------------------|--------------------------|
------------9-------9-----|------------9-------9-----|
-------7------------------|-------7------------------|
--8--------------8------7-|--8--------------8------7-|

Then just repeat verse, pre chorus and chorus

Then on 2:19 play this:

--------------------------|--------------------------|
----5-7-8-----------------|----5-7-8-----------------|
--7----------7------------|--7-----------------------|
--------------------------|-------------9------------| x4
--------------------------|--------------------------|
--------------------------|--------------------------|

2:35
---------------------------------|
---------------------------------|
--9--7-9-7-9-7-9-7-9-7-9-7-9-7---|
-------------------------------9-|
---------------------------------|
---------------------------------|

------------------------------|------------------------------|
--8--8-7--8-7---8--8-7--8-7---|------------------------------|
--------------7-------------7-|--9--9-7--9-7---7--7-4----4-7-|
------------------------------|--------------9---------7-----|
------------------------------|------------------------------|
------------------------------|------------------------------|

------------------------------|---------------------------------|
--8--8-7--8-7---8--8-7--8-7---|------------------------10-10-10-|
--------------7-------------7-|--9--9-9--9-7---7--9-9-----------|
------------------------------|--------------9------------------|
------------------------------|---------------------------------|
------------------------------|---------------------------------|

------------------------------------------|
------------------------------------------|
--12--12-12--12-12-12-11--11-11--11-11-11-|
---x---x--x---x--x--x--x---x--x---x--x--x-|
--10--10-10--10-10-10--9---9--9---9--9--9-|
------------------------------------------|

------------------------------|
------------------------------|
--9--9-9--9-9-9-7--7-7--7-7-7-|
--x--x-x--x-x-x-x--x-x--x-x-x-| x4
--7--7-7--7-7-7-5--5-5--5-5-5-|
------------------------------|

------------------------------------------|
------------------------------------------|
--12--12-12--12-12-12-11--11-11--11-11-11-|
---x---x--x---x--x--x--x---x--x---x--x--x-|
--10--10-10--10-10-10--9---9--9---9--9--9-|
------------------------------------------|

------------------------------------|
------------------------------------|
--9--9-9--9-9-9-16--16-16--16-16-16-|
--x--x-x--x-x-x--x---x--x---x--x--x-| x4
--7--7-7--7-7-7-14--14-14--14-14-14-|
------------------------------------|

Repeat pre chorus and chorus twice and you are done!
Добавлено: 08.06.2012
Другие материалы по этой песне:
  • Аккорды и текст

Страница создана 05.03.2012
http://primanota.ru/1000-travels-of-jawaharlal/with-smile-and-slobber-chords.htm
Привет, Гость.
Предлагаем пройти революционный курс по гитаре.
Подарок от PrimaNota.Ru, забирай!