PrimaNota.ru - самый крупный в мире бесплатный архив песенных текстов, аккордов, табулатур и нот


10 Years - Vertigo - таба, видео

Регистрация Запомнить меня
Войти через:  Facebook Google Twitter Vk Yandex Mail.ru

10 Years - Vertigo - таба, видео

Печатать
Просмотров: 84
10 Years: Vertigo

Transcribed by: mysticguitar77

Facebook: https://www.facebook.com/MysticGuitar77
YouTube Channel: https://www.youtube.com/user/MysticGuitar77

Date last modified: April 18, 2015

Tuning: Drop C# (C#,G#,C#,F#,A#,D#)

Riff 1 (guitar 1, clean with slight chorus and reverb, let notes ring out)   "Hopelessly hopeful..."
D#|----8----------|
A#|--------11--10-|
F#|-7-------------|
C#|-0-------------|
G#|---------------|
C#|---------------|

Riff 2 (guitar 1, clean with slight chorus and reverb)   "...romantically numb..."
D#|---------------------------|
A#|-4~------10--------4~------|
F#|-7~------7--7~-----7~------|
C#|-0~------0---------0~------|
G#|---------------------------|
C#|---------------------------|

Riff 2 (guitar 2, clean)
D#|-0~-----0~-----0~-----0~---|
A#|-3~-----3~-----3~-----3~---|
F#|-2~-----0~-----2~-----0~---|
C#|-0~-----1~-----0~-----1~---|
G#|---------------------------|
C#|---------------------------|
    ^ strum with upstroke

Play Riff 1 x1 (guitar 1)

Riff 3 (guitar 1, distortion with slight delay)   "Around and round we go..."
D#|-----------------------------------------------------------------------------|
A#|-7-7-7-7-7-7-8-8-8-8-8-8---------11-11-11-11-11-11-10-10-10-10-10-10-8-8-8-8-|
F#|-------------------------7-7-7-7---------------------------------------------|
C#|-----------------------------------------------------------------------------| x2
G#|-----------------------------------------------------------------------------|
C#|-----------------------------------------------------------------------------|

D#|---------------------------------8-8-8-8-8-8-------------------------------|
A#|-7-7-7-7-7-7-8-8-8-8-8-8---------------------11-11-11-11-11-11-10-10-10-10-|
F#|-------------------------7-7-7-7-------------------------------------------|
C#|---------------------------------------------------------------------------| x2
G#|---------------------------------------------------------------------------|
C#|---------------------------------------------------------------------------|

Play Riff 1 x1   (guitar 1 w/ distortion)
Play Riff 2 x1   "Minimize my movements..." (both guitars)
Play Riff 1 x1   (guitar 1, clean)
Play Riff 2 x1   "No love and no hate..." (both guitars)
Play Riff 1 x1   (guitar 1, clean)
Play Riff 3 x1   (guitar 1)   "Around and round we go..."

Riff 3 (guitar 2, distortion)   "Around and round we go..."
D#|------------------------------------------------|
A#|------------------------------------------------|
F#|-7-------------------7--------------------------|
C#|-7----3----5----5----7----3----5----5--5*5*5*5*-|
G#|-5----3----5----5----5----3----5----5--5*5*5*5*-|
C#|------3----5----5---------3----5----5--5*5*5*5*-|

Play Riff 3 x2   (guitar 2)   "With the rise and fall of your vertigo..."
Play Riff 1 x1   (guitar 1 w/ distortion)

Fill 1 (guitar 2) *played while guitar 1 is playing Riff 1*
D#|-------------|
A#|-------------|
F#|-------------|
C#|-------------|
G#|-5~----6~----|
C#|-------------|

Play Riff 1 x8   (guitar 1 w/ distortion) *played while guitar 2 is playing Riff 4*

Riff 4 (guitar 2)
D#|-----------------------------|
A#|-----------------------------|
F#|-7--7--5--5--10--10------10\-|
C#|-7--7--5--5--10--10------10\-|
G#|-5--5--3--3--8---8-------8\--|
C#|-----------------------------|

Play Riff 4 x4   "Hesitating..."
Play Riff 3 x1   (both guitars)   "Around and round we go..."
Play Riff 1 x1   (guitar 1 w/ distortion)
Play Fill 1 x1   (guitar 2)
Play Riff 1 x8   (guitar 1)   "Only made in our dreams..."
Play Riff 4 x4   (guitar 2)

Ending (both guitars)   "Only made in our dreams..."
D#|-0~------------0~-----|
A#|-3~------------3~-----|
F#|-2~------------2~-----|
C#|-0~-----1~-----0~-----|
G#|-0~-----1~-----0~-----|
C#|-0~-----1~-----0~-----|

Enjoy!!





Добавлено: 13.11.2015
Другие материалы по этой песне:
  • Аккорды и текст

Страница создана 13.11.2015
http://primanota.ru/10-years/vertigo-chords.htm
Привет, Гость.
Предлагаем пройти революционный курс по гитаре.
Подарок от PrimaNota.Ru, забирай!