PrimaNota.ru - самый крупный в мире бесплатный архив песенных текстов, аккордов, табулатур и нот


10 Years - Triggers And Tripwires - таба, видео

Регистрация Запомнить меня
Войти через:  Facebook Google Twitter Vk Yandex Mail.ru

10 Years - Triggers And Tripwires - таба, видео

Печатать
Просмотров: 65
10 Years: Triggers And Tripwires

Transcribed by: mysticguitar77

Facebook: https://www.facebook.com/MysticGuitar77
YouTube Channel: https://www.youtube.com/user/MysticGuitar77

Date last modified: April 18, 2015

Tuning: Drop B (B,F#,B,E,G#,C#)

Opening (fade in)
C#|-0~----------------|
G#|-3~----------------|
 E|-2~----------------|
 B|-0~----------------|
F#|-0~----------------|
 B|-0~----------------|

Riff 1
C#|--------------------------------------------------|
G#|--------------------------------------------------|
 E|--------------------------------------------------|
 B|-7--7--7-7----1--1--1-1----8--8--8-8----8--8--8-8-|
F#|-7--7--7-7----1--1--1-1----8--8--8-8----8--8--8-8-|
 B|-7--7--7-7----1--1--1-1----8--8--8-8----8--8--8-8-|

C#|---------------------------------------------------------|
G#|---------------------------------------------------------|
 E|---------------------------------------------------------|
 B|-7--7--7-7----1--1--1/8--8--8--8--2--2--2-2----2--2--2-2-|
F#|-7--7--7-7----1--1--1/8--8--8--8--2--2--2-2----2--2--2-2-|
 B|-7--7--7-7----1--1--1/8--8--8--8--2--2--2-2----2--2--2-2-|

Play Riff 1 x2   "What's the worst that can happen..."

Riff 2   "No failing, smooth sailing..."
C#|---------------------------------|
G#|---------------------------------|
 E|---------------------------------|
 B|---------------------------------|
F#|---------------------------------|
 B|-5h7-7-7-7-7-5h7-7-7-7-7-5h7-7-7-|
    * * * * * * * * * * * * * * * *

Play Riff 2 x4   "...on this sinking ship..."

Riff 3   "Changing the devil in the details, again and again..."
C#|-------------------------------------|
G#|-------------------------------------|
 E|-------------------------------------|
 B|-------------------------------------| x3
F#|-------------------------------------|
 B|-000--000--000--10-10-10-10-10-10-10-|

C#|---------------------------------------|
G#|---------------------------------------|
 E|---------------------------------------|
 B|----------------------x-x-------x-x----|
F#|----------------------x-x-------x-x----|
 B|-000--000--000--10-10-x-x-10-10-x-x-10-|

Play Riff 1 x2   "Trying to walk a straight line..."
Play Riff 2 x4   "No failing, smooth sailing..."
Play Riff 3 x2   "Changing the devil in the details, again and again..."

Riff 4
C#|----------------------------|
G#|----------------------------|
 E|----------------------------|
 B|----------------------------|
F#|----------------------------|
 B|-0-7-8-0-10-8-0-5-7-0-10-12-|

Play Riff 4 x4
Play Riff 4 x4   "I refuse to pull the time I've borrowed..." (palm-muted)

Fill 1
C#|-----------------------------------------------|
G#|-----------------------------------------------|
 E|-----------------------------------------------|
 B|-----------------------------------------------|
F#|-----------------------------------------------|
 B|-0-7-8-0-10-8-0-5-7-0-10-12-0-7-8-0-10-8-0-5-7-|

Play Riff 3 x2   "Changing the devil in the details, again and again..."
Play Riff 4 x4

Ending
C#|-------------------------|
G#|-------------------------|
 E|-------------------------|
 B|-0~----------------------|
F#|-0~----------------------|
 B|-0~----------------------|

Enjoy!!






Добавлено: 13.11.2015
Вам также может быть интересно:
Другие материалы по этой песне:
  • Аккорды и текст

Страница создана 13.11.2015
http://primanota.ru/10-years/triggers-and-tripwires-chords.htm
Привет, Гость.
Предлагаем пройти революционный курс по гитаре.
Подарок от PrimaNota.Ru, забирай!