PrimaNota.ru - самый крупный в мире бесплатный архив песенных текстов, аккордов, табулатур и нот


10 Years - Soma - таба, видео

Регистрация Запомнить меня
Войти через:  Facebook Google Twitter Vk Yandex Mail.ru

10 Years - Soma - таба, видео

Печатать
Просмотров: 177
10 Years: Soma

Transcribed by: mysticguitar77

YouTube Username: MysticGuitar77

Date last modified: August 10, 2012

Tuning: Drop C# (C#,G#,C#,F#,A#,D#)

Riff 1 - Guitar 1
D#|------------------------------------------------------------------|
A#|------------------------------------------------------------------|
F#|------------------------------------------------------------------|
C#|-----3----------3------8--8--8----3-3-3-3-3-3-3-3-3-3-3---5-5-5-5-|
G#|---5---5----5-----5----10-10-10---3-3-3-3-3-3-3-3-3-3-3---3-3-3-3-|
C#|-0--------0---0------0----------0-3-3-3-3-3-3-3-3-3-3-3-0-2-2-2-2-|

Riff 1 - Guitar 2
D#|----------------------------------------------------------------------|
A#|----------------------------------------------------------------------|
F#|----------------------------------------------------------------------|
C#|-----3----------3------8--8--8----7-7-7-7-7-7-7-7-7-7-7---10-10-10-10-|
G#|---5---5----5-----5----10-10-10---8-8-8-8-8-8-8-8-8-8-8---7--7--7--7--|
C#|-0--------0---0------0----------0-----------------------0-------------|

Play Riff 1 x2

Both guitars end with:
D#|------------|
A#|------------|
F#|------------|
C#|------------|
G#|------------|
C#|-0~---------|

Riff 2 (clean)   "The smoking haze of yesterday..."
D#|--------------------------------------------|
A#|-----6---6------6---6------5---5------5---5-|
F#|---7---7------7---7------7---7------7---7---|
C#|-0----------0-------------------------------|
G#|-----------------------7----------7---------|
C#|--------------------------------------------|

D#|--------------------------------------------------------------|
A#|--------------------------------------------------------------|
F#|-------12----12--------12----12-------11----11-------11----11-|
C#|----12----12--------12----12-------12----12-------12----12----|
G#|-10--------------10--------------9--------------9-------------|
C#|--------------------------------------------------------------|

D#|--------------------------------------------|
A#|-----6---6------6---6------5---5------5---5-|
F#|---7---7------7---7------7---7------7---7---|
C#|-0----------0-------------------------------|
G#|-----------------------7----------7---------|
C#|--------------------------------------------|

D#|------------------------------------------------------|
A#|------------------------------------------------------|
F#|-------12----12--------12----12------7---7------7---7-|
C#|----12----12--------12----12-------7----------7-------|
G#|-10--------------10--------------5-----5----5-----5---|
C#|------------------------------------------------------|

Play Riff 2 x1

Riff 3 (clean)   "Mother be weary of what you preach..."
D#|-----0~------------------0~----------|
A#|-------------------------------------|
F#|--------------0~------------------0~-|
C#|---7--------7-----7----7--------7----|
G#|-5--------8----------5--------8------|
C#|-------------------------------------|

Play Riff 1 x2   "Stay asleep at the wheel..." (ends the same as before)

*Note: A guitar plays a muted string thing during the little refrain here.
       To do it, place your hand on all the strings lightly (don't fret them)
      at around the 5th fret or so and just strum. It's very wet with
       effects, it sounds like a ton of delay and reverb, but it's very
       indistinct in the song so you can barely hear it.

Play Riff 2 x1   "Will the end of time..."
Play Riff 3 x1   "Father will pay for what you've done..."
Play Riff 1 x4   "Stay asleep at the wheel..."

*Bridge notes: There is actually no guitar in the bridge. For the most part,
               strings and vocals take control, but if you want to play
               guitar here, it's the same as Riff 2 so just play that once.
               Now, after the first half of Riff 2 finishes, another guitar
               kicks in with those heavy delay/reverbed string mutes as I've
               mentioned before. Still, can barely hear it here too, but it's
               there if you choose to play it.

Play Riff 1 x4   "Stay asleep at the wheel..."

That's essentially it, not much entertainment on the guitar for this one.
More of a vocally and strings driven song really. If you have any questions, 
feel free to message me here or on my YouTube channel and I'll make sure to
respond ASAP. Enjoy!




Добавлено: 06.06.2013
Другие материалы по этой песне:
  • Аккорды и текст

Страница создана 06.06.2013
http://primanota.ru/10-years/soma-chords.htm
Привет, Гость.
Предлагаем пройти революционный курс по гитаре.
Подарок от PrimaNota.Ru, забирай!