PrimaNota.ru - самый крупный в мире бесплатный архив песенных текстов, аккордов, табулатур и нот


10 Years - Now Is The Time - таба, видео

Регистрация Запомнить меня
Войти через:  Facebook Google Twitter Vk Yandex Mail.ru

10 Years - Now Is The Time - таба, видео

Печатать
Просмотров: 261
got the intro and bridge corrected thanks to mysticguitar77

Intro/Pre-Chorus
(distortion)
|---------------------------------| |--------------------------------|
|---------------------------------| |--------------------------------|
|---------------------------------| |--------------------------------| x2
|---------------------------------| |--------------------------------|
|---------------------------------| |----------------------------3---|
|-0-5-8-5-8-5-0-5-7-5-7-5-0-3-5-3-| |-0-5-8-5-8-5-0-5-7-5-7-5-0-3----|

(clean)
|------------------------------------------------------------|
|------------------------------------------------------------|
|-7-7-7-77-9-1010-1010--10-9-7-7-7-77-7-7-5-5-5-55-5---------|
|-x-x-x-xx-x-x-x---xx----8-7-5-5-5-55-5-5-3-3-3-33-3---------| x3
|-5-5-5-55-7-8-8---88----8-7-5-5-5-55-5-5-3-3-3-33-3---------|
|------------------------8-7-5-5-5-55-5-5-3-3-3-33-3---------|

|------------------------------------------------------------|
|------------------------------------------------------------|
|-7-7-7-77-9-1010-1010--10-9-7-7-7-77-7-7---5-5-5-55-5-------|
|-x-x-x-xx-x-x-x---xx----8-7-5-5-5-55-5-5---3-3-3-33-3-xxxx--|
|-5-5-5-55-7-8-8---88----8-7-5-5-5-55-5-5---3-3-3-33-3-xxxx--|
|------------------------8-7-5-5-5-55-5-5---3-3-3-33-3-xxxx--|
                                                      ^-----------distortion

pre-chorus
|---------------------------------| |--------------------------------|
|---------------------------------| |--------------------------------|
|---------------------------------| |--------------------------------| x2
|---------------------------------| |--------------------------------|
|---------------------------------| |----------------------------3---|
|-0-5-8-5-8-5-0-5-7-5-7-5-0-3-5-3-| |-0-5-8-5-8-5-0-5-7-5-7-5-0-3----|

Chorus(repeat twice)
(slightly bend on last 10)
(figure out strums)
|--------------------------| |--------------------------|   
|--------------------------| |--------------------------|    
|--------------------------| |--------------------------|
|-0~-10-0~-10--------------| |-0~-10-888888-5555-1010---| x2
|-0~-10-0~-10--------------| |-0~-10-888888-5555-1010---|
|-0~-10-0~-10--------------| |-0~-10-888888-5555-1010---|    

(verse 2)
(clean)
|------------------------------------------------------------|
|------------------------------------------------------------|
|-7-7-7-77-9-1010-1010--10-9-7-7-7-77-7-7-5-5-5-55-5---------|
|-x-x-x-xx-x-x-x---xx----8-7-5-5-5-55-5-5-3-3-3-33-3---------| 
|-5-5-5-55-7-8-8---88----8-7-5-5-5-55-5-5-3-3-3-33-3---------|
|------------------------8-7-5-5-5-55-5-5-3-3-3-33-3---------|

|------------------------------------------------------------|
|------------------------------------------------------------|
|-7-7-7-77-9-1010-1010--10-9-7-7-7-77-7-7---5-5-5-55-5-------|
|-x-x-x-xx-x-x-x---xx----8-7-5-5-5-55-5-5---3-3-3-33-3-xxxx--|
|-5-5-5-55-7-8-8---88----8-7-5-5-5-55-5-5---3-3-3-33-3-xxxx--|
|------------------------8-7-5-5-5-55-5-5---3-3-3-33-3-xxxx--|
                                                      ^-----------distortion

pre-chorus
|---------------------------------| |--------------------------------|
|---------------------------------| |--------------------------------|
|---------------------------------| |--------------------------------| x2
|---------------------------------| |--------------------------------|
|---------------------------------| |----------------------------3---|
|-0-5-8-5-8-5-0-5-7-5-7-5-0-3-5-3-| |-0-5-8-5-8-5-0-5-7-5-7-5-0-3----|

Chorus(repeat twice)
(slightly bend on last 10)
(figure out strums)
|--------------------------| |--------------------------|   
|--------------------------| |--------------------------|    
|--------------------------| |--------------------------|
|-0~-10-0~-10--------------| |-0~-10-888888-5555-1010---| x2
|-0~-10-0~-10--------------| |-0~-10-888888-5555-1010---|
|-0~-10-0~-10--------------| |-0~-10-888888-5555-1010---|                    

end second chorus on open power chords and let ring into

(bridge)(palm mute part)
|-------------------------------|
|-------------------------------|
|-------------------------------|
|-------------------------------| x3
|---8p7---5p0-------------------|
|-0-----0-----0-3-3/5-0-3p0-3p0-|

|----------------------------------|
|----------------------------------|
|----------------------------------|
|----------------------------------|
|---8p7---5p0----------------------|
|-0-----0-----0-3-3/5-0-3p0-3p0-3b-|

(second part of bridge, no palm mute)
|-------------------------------|
|-------------------------------|
|-------------------------------|
|-------------------------------| x3
|---8p7---5p0-------------------|
|-0-----0-----0-3-3/5-0-3p0-3p0-|

|----------------------------------|
|----------------------------------|
|----------------------------------|
|----------------------------------|
|---8p7---5p0----------------------|
|-0-----0-----0-3-3/5-0-3p0-3p0-3b-|

Chorus/Outro(repeat twice)
(slightly bend on last 10)
(figure out strums)
(on second time end with open powerchords)
|--------------------------| |--------------------------|   
|--------------------------| |--------------------------|    
|--------------------------| |--------------------------|
|-0~-10-0~-10--------------| |-0~-10-888888-5555-1010---| x2
|-0~-10-0~-10--------------| |-0~-10-888888-5555-1010---|
|-0~-10-0~-10--------------| |-0~-10-888888-5555-1010---|    

Добавлено: 21.05.2012
Другие материалы по этой песне:
  • Аккорды и текст

Страница создана 21.05.2012
http://primanota.ru/10-years/now-is-the-time-chords.htm
Привет, Гость.
Предлагаем пройти революционный курс по гитаре.
Подарок от PrimaNota.Ru, забирай!