PrimaNota.ru - самый крупный в мире бесплатный архив песенных текстов, аккордов, табулатур и нот


10 Rue Dla Madeleine - Le Sous Sol - бас-таба, видео

Регистрация Запомнить меня
Войти через:  Facebook Google Twitter Vk Yandex Mail.ru

10 Rue Dla Madeleine - Le Sous Sol - бас-таба, видео

Печатать
Просмотров: 77
Hi i did this tabs by seeing a man playing this song 
Enjoy this GREATFUL song :DDD 
Vive 10 rue :D
*=16X
**=4X

Intro 
                             
G||-------------------|------------------|------------------|
D||---------3-3-0-----|-----3------------|-----3------------|
A||-0-0-2-2-----------|-3-5---5---8-7-5--|-3-5---5-3-5---8-7|
E||-------------------|---------5--------|-------------5----|
                             X2
Pont
G||------------3------|------------------|
D||----555-3-5---5-3-5|-----777-7-5-7----|
A||-------------------|------------------|
E||3-3----------------|5-5---------------|

Partie A
G||-------------------|---------------------|
D||-------------------|------------------2--|
A||5-5---3-5---3-5-3--|----------------3---3|        X3
E||----5-----5--------|5-5--3-5-5--5-5------|

Pont+ Fin Partie A
G||------------3------|------------------|-----------------------------|
D||----555-3-5---5-3-5|----777-7-5-7-----|-------3---------------------|
A||-------------------|------------------|5-3-5----5---8-7-------------|
E||3-3----------------|5-5---------------|-----------5-------3-3--5-5--|

Partie B
G||----7---5------5-----5------|
D||------7----5-7---5-7---7----|
A||5-5-------------------------|
E||----------------------------|

G||----------------------------|
D||----------------------------|
A||----7-5---7-5---7-7-8-7-----|
E||5-5-----8-----8---------8---|

G||------5-7-9-7-5-7-5------------------|
D||----7---------------7----------------|
A||5-5----------------------------------|
E||-------------------------------------|

G||-------------------------------------|
D||-------------------------------------|
A||----7-5---7-5---7-7-8-7--------------|
E||5-5-----8-----8---------8------------|

G||-------------------------------------|
D||----7-----7--------------------------|
A||5-5---7-8---8-7-5-7-8-7--------------|
E||-------------------------------------|

G||-------------------------------------|
D||-------------------------------------|
A||----7-5---7-5---7-7-8-7--------------|
E||5-5-----8-----8----------8-----------|

Pont

Parti A  X3

Pont

Partie B

Pont 2
G||------------3------|--------------5---5|
D||----555-3-5---5-3-5|----777-7-5-7---7--|
A||-------------------|-------------------|
E||3-3----------------|5-5----------------|
                                            
Partie C                                    X3
G||777-555----------------|--------------------|-----------------------------------|
D||---------777-555-------|--------------------|-----------------------------------|
A||-----------------88--77|-5*-----------------|555-5**----------------------------|
E||-----------------------|---5*-6*-3*---------|---------555-5**--666-6**--333-3**-|

G||777-555----------------|
D||---------777-555-------|
A||-----------------88--77|
E||-----------------------|

Partie D x2
G||-------------------------------------------------------|
D||----3-------3-----3-------3-----5-------2--------------|
A||5-5---5-5-5-------------------------------5-5-5-5-5----|
E||--------------5-5---5-5-5---6-6---3-3-3----------------|

G||-------------------------------------|
D||3---3-5-3---3------------------------|
A||--5-------5--------------------------|       
E||-------------------------------------|

Partie A x3

Pont 2
Добавлено: 23.06.2016
Другие материалы по этой песне:
  • Аккорды и текст

Страница создана 23.06.2016
http://primanota.ru/10-rue-dla-madeleine/le-sous-sol-chords.htm
Привет, Гость.
Предлагаем пройти революционный курс по гитаре.
Подарок от PrimaNota.Ru, забирай!