PrimaNota.ru - самый крупный в мире бесплатный архив песенных текстов, аккордов, табулатур и нот


1 Dads - So Soldier - аккорды и текст, таба, видео

Регистрация Запомнить меня
Войти через:  Facebook Google Twitter Vk Yandex Mail.ru

1 Dads - So Soldier - аккорды и текст, таба, видео

Печатать
Просмотров: 131
So Soldier
1 Dads
[Intro]
F Am F G x2

F Am G x4

[Intro Lead]
e|------------------------------------------------------|\
B|------------------------------------------------------| \
G|------0-2-------------------------0-2-----------------|  X2
D|--2-2---------0h2p0-----------2-2---------0h2p0-------|  /
A|----------3-3-------------------------3-3-------------| /
E|--------------------3h5p3~-----------------------3~---|/


[Verse 1]
F   Am  G
Sooo
             F     Am G 
You've been hiding
              F         Am          G
You've been hiding that secret under your shirt collar
         F      Am   G
You can't breathe easy
F   Am   G
Sooo
           F  Am   G
If he finds it
               F       Am           G
That you're hiding that secret under your shirt collar
         F     Am    G
You can't breathe easy


[Pre-chorus]
F               Am
When you'll have to, you'll find
F               G
When you have to, you'll show it
F              Am
Forever leaves behind
F              G
Forever is not knowing


[Chorus Lead]
E|--------------------------------------------------|\ 
B|------1-3----------------------1-3----------------| \      
G|--2-2----------0h2p0-------2-2----------0h2p0~----|  X2 
D|----------2-2----------------------2-2------------|  /
A|--------------------------------------------------| /
E|----------------------3~--------------------------|/

[Chorus]
F            Am         G
Fearing is a feeling of mine
F           Am          G
Everybody's doing their time
F                Am         G
Shadows creeping up from behind
                 F   Am    G
Calling out your name


[Verse 2]
F   C     G        F    C  G
Sooo,        soldiers
               F        C          G
You've been hiding that secret under your shirt collars
        F    C      G
You both breathe easy
  F   G                Am    C
Sooo,     he find you out
          F      G
Feel my cold    leaving you no doubt


[Chorus Lead]
E|---------------------------------------------------------------------------|
B|------1-3----------------------1-3-------------------1-3-------------------|
G|--2-2----------0h2p0-------2-2----------0h2p0----2-2----------0h2p0--------|
D|----------2-2----------------------2-2-------------------2-2---------------|
A|---------------------------------------------------------------------------|
E|----------------------3~---------------------------------------------3~----|

[Chorus]
F            Am         G
Fearing is a feeling of mine
F           Am          G
Everybody's doing their time
F                Am         G
Shadows creeping up from behind
                 A    G
Calling out your name


[Bridge]
        F     G
Let the words fall
            Am           C
Been in her head for too long
        F     G
Let his words fall
           Am                   C
He's been keeping it inside for so long
        F     G
Let the words fall
            Am           C
Been in her head for too long (find you out)
        F     G
Let his words fall (feel my clouds calling you)


F Am G x4

[Lead]
e|-------------------------------------------------------|\
B|-------------------------------------------------------| \
G|------0-2-------------------------0-2------------------|  X2
D|--2-2---------0h2p0-----------2-2----------0h2p0-------|  /
A|----------3-3-------------------------3-3--------------| /
E|--------------------3h5p3~------------------------3~---|/


[Outro]
F                 Am
When you have to, you'll find
F                 G
When you have to, you'll show it
F              Am
Forever leaves behind
F               G
Forever is not knowing

F                 Am
When you have to, you'll find
F                 G
When you have to, you'll show it
F              Am
Forever leaves behind
F               G
Forever is not knowing
Добавлено: 17.10.2015
Другие материалы по этой песне:
  • Аккорды и текст

Страница создана 30.08.2015
http://primanota.ru/1-dads/so-soldier-chords.htm
Привет, Гость.
Предлагаем пройти революционный курс по гитаре.
Подарок от PrimaNota.Ru, забирай!