PrimaNota.ru - самый крупный в мире бесплатный архив песенных текстов, аккордов, табулатур и нот


1 Dads - Sister - таба, видео

Регистрация Запомнить меня
Войти через:  Facebook Google Twitter Vk Yandex Mail.ru

1 Dads - Sister - таба, видео

Печатать
Просмотров: 36
Artist: #1 Dads
Song: Sister
Album: Man of Leisure (2011)


TUNING: Open Bmaj6 (B G# B F# B D#)



VERSE PT. 1

D#|---------------------------------------------------------------------|
 B|---------------------------------------------------------------------|
F#|--0-0-0-0-0-0-0-0-0-0-0-0-0-0-0-0-0-0-0-0-0-0-0-0-0-0-0-0-0-0-0-0----|
 B|--0-0-0-0-0-0-0-0-0-0-0-0-0-0-0-0-0-0-0-0-0-0-0-0-0-0-0-0-0-0-0-0----|
G#|--7-7-7-7-7-7-7-7-7-7-7-7-7-7-7-7-0-0-0-0-0-0-0-0-0-0-0-0-0-0-0-0----|
 B|--0-0-0-0-0-0-0-0-0-0-0-0-0-0-0-0-5-5-5-5-5-5-5-5-5-5-5-5-5-5-5-5----|


VERSE PT. 2

D#|---------------------------------------------------------------------------------------------------|
 B|---------------------------------------------------------------------------------------------------|
F#|--0--0--0--0--0--0--0--0--0--0--0--0--0--0--0--0--0--0--0--0--0--0--0--0--0--0--0--0--0--0--0--0---|
 B|--0--0--0--0--0--0--0--0--0--0--0--0--0--0--0--0--0--0--2--0--0--0--2--0--0--0--2--0--0--0--2--0---|
G#|--7--7--10-7--7--7--10-7--7--7--10-7--7--5--3--5--0--0--0--0--0--0--0--0--0--0--0--0--0--0--0--0---|
 B|--0--0--0--0--0--0--0--0--0--0--0--0--0--0--0--0--5--5--5--5--5--5--5--5--5--5--5--5--5--5--5--5---|


PRE-CHORUS

D#|---------------------------------------------------------------------|
 B|---------------------------------------------------------------------|
F#|--0-0-0-0-0-0-0-0-0-0-0-0-0-0-0-0-0-0-0-0-0-0-0-0-0-0-0-0-0-0-0-0----|
 B|--0-0-0-0-0-0-0-0-0-0-0-0-0-0-0-0-0-0-2-0-0-0-2-0-0-0-2-0-0-0-2-0----|
G#|--7-7-7-7-7-7-7-7-5-5-5-5-5-5-5-5-0-0-0-0-0-0-0-0-0-0-0-0-0-0-0-0----|
 B|--9-9-9-9-9-9-9-9-7-7-7-7-7-7-7-7-5-5-5-5-5-5-5-5-5-5-5-5-5-5-5-5----|

D#|------------------------------------|
 B|------------------------------------|
F#|--0-0-0-0-0-0-0-0-0-0-0-0-0-0-0-0---|                                    SONG ORDER
 B|--0-0-0-0-0-0-0-0-0-0-0-0-0-0-0-0---|                                    
G#|--7-7-7-7-7-7-7-7-5-5-5-5-5-5-5-5---|                                    VERSE PT.1   X2
 B|--9-9-9-9-9-9-9-9-7-7-7-7-7-7-7-7---|                                    VERSE PT.2   X2
                                                                            VERSE PT.1   X2
                                                                            VERSE PT.2   X1
CHORUS                                                                      VERSE PT.1   X2
                                                                            PRE-CHORUS   X1
D#|------------------------------------------------|                        VERSE PT.2   X3
 B|------------------------------------------------|                        CHORUS       X1
F#|--0-0-0-0--0--0-0-0-0--0----0-0-0-0--0---0--0---|                        VERSE PT.1   X4
 B|--0-0-0-0--0--0-0-0-0--0----0-0-0-0--0---0--0---|                        PRE-CHORUS   X1
G#|--5-5-5-5--3--7-7-7-7--5----5-5-5-5--3---7--5---|                        VERSE PT.2   X3
 B|--7-7-7-7--5--9-9-9-9--7----7-7-7-7--5---9--7---|                        CHORUS       X1
                                                                            OUTRO        X6
D#|------------------------------------------------------|
 B|------------------------------------------------------|
F#|--0-0-0-0--0--0-0-0-0--0----0-0-0-0--0---0--0-----0---|
 B|--0-0-0-0--0--0-0-0-0--0----0-0-0-0--0---0--0-----0---|
G#|--5-5-5-5--3--7-7-7-7--5----5-5-5-5--3---7--5-----0---|
 B|--7-7-7-7--5--9-9-9-9--7----7-7-7-7--5---9--7-----5---|


OUTRO

D#|---------------------------------------------------------------------------------------------------|
 B|---------------------------------------------------------------------------------------------------|
F#|--0--0--0--0--0--0--0--0--0--0--0--0--0--0--0--0--0--0--0--0--0--0--0--0--0--0--0--0--0--0--0--0---|
 B|--0--0--0--0--0--0--0--0--0--0--0--0--0--0--0--0--0--0--0--0--0--0--0--0--0--0--0--0--0--0--0--0---|
G#|--5--7--7--7--7--7--7--10-10-10-10-7--7--5--5--3--5--7--3--3--3--3--3--5--7--0--0--0--0--3--3--5---|
 B|--0--0--0--0--0--0--0--0--0--0--0--0--0--0--0--0--5--5--5--5--5--5--5--5--5--5--5--5--5--5--5--5---| 
Добавлено: 17.10.2015
Другие материалы по этой песне:
  • Аккорды и текст

Страница создана 17.10.2015
http://primanota.ru/1-dads/sister-chords.htm
Привет, Гость.
Предлагаем пройти революционный курс по гитаре.
Подарок от PrimaNota.Ru, забирай!