PrimaNota.ru - самый крупный в мире бесплатный архив песенных текстов, аккордов, табулатур и нот


1 Dads - Homeward Found - таба, видео

Регистрация Запомнить меня
Войти через:  Facebook Google Twitter Vk Yandex Mail.ru

1 Dads - Homeward Found - таба, видео

Печатать
Просмотров: 56
Artist: #1 Dads
Song: Homeward Found
Album: About Face (2014)



TUNING: Eb Standard (Eb Ab Db Gb Bb Eb)


INTRO/VERSE                                 
     C/G      Fmaj7/C   Em                  
Eb|---0---------0-------0-----|
Bb|---1------0--1-------0-----|             
Gb|---0---------2-------0-----|             
Db|---2---------3-------2-----|
Ab|---3---------3-------2-----|             
Eb|---3-----------------0-----|             

                                            
REFRAIN/CHORUS
     C/G           Fmaj7/C   Em                                   
Eb|----0---0---0-----------------------|    
Bb|--1---1---1---1-----1---1---0---0---|
Gb|--0-------------0-2---2---0---0-----|    
Db|--2---------------3-------2---------|   
Ab|--3---------------3-------2---------|    
Eb|--3-----------------------0---------|
                                            
                                            
BRIDGE
     G           Am   Fmaj7/C
Eb|--------------0--0--0--0------------0---0-----------0---0--|      
Bb|--3--3--3--3--1--1--1--1--3-------3---3---3-------3---3----|
Gb|--0--0--0--0--2--2--2--2--0-------0-------0-------0--------|        
Db|--0--0--0--0--2--2--3--3--0-------0-------0-------0--------|        
Ab|--2--2--2--2--0--0--3--3--2-------2-------2-------2--------|       
Eb|--3--3--3--3--------------3-------3-------3-------3--------|        
                                                                       
LINK                                                                   
"You call me now.."                                                    
Eb|---0--0--0--0--0--0--0--0---|                                       
Bb|---1--1--1--1--1--1--1--1---|                                       
Gb|---2--2--2--2--2--2--2--2---|                                       
Db|---3--3--3--3--3--3--3--3---|                                       
Ab|---3--3--3--3--3--3--3--3---|                                       
Eb|----------------------------|                                       

End on C/G                                                                      


SONG ORDER

INTRO    X2
REFRAIN  X2
VERSE    X4
REFRAIN  X2
VERSE    X4
REFRAIN  X2
CHORUS   X4
BRIDGE   X2
LINK     X1 
REFRAIN  X2
CHORUS   X4
VERSE    X4
Добавлено: 16.04.2016
Другие материалы по этой песне:
  • Аккорды и текст

Страница создана 16.04.2016
http://primanota.ru/1-dads/homeward-found-chords.htm
Привет, Гость.
Предлагаем пройти революционный курс по гитаре.
Подарок от PrimaNota.Ru, забирай!