PrimaNota.ru - самый крупный в мире бесплатный архив песенных текстов, аккордов, табулатур и нот


1 Dads - For Randy Robinson And Cassidy - аккорды и текст, видео

Регистрация Запомнить меня
Войти через:  Facebook Google Twitter Vk Yandex Mail.ru

1 Dads - For Randy Robinson And Cassidy - аккорды и текст, видео

Печатать
Просмотров: 73
For Randy Robinson And Cassidy
1 Dads
Artist: #1 Dads
Song: For Randy Robinson and Cassidy
Album: About Face (2014)


TUNING: Eb Standard (Eb Ab Db Gb Bb Eb)

     C/G    F7M/C       Am       G
Eb|---0--------0--------0-------------|
Bb|---1--------1--------1--------3----|
Gb|---0--------2--------2--------0----|
Db|---2--------3--------2--------0----|
Ab|---3--------3--------0--------2----|
Eb|---3--------------------------3----|



NOTE: In the verses, the leading C/G chord and the F7M/C   chord that follows use subtle decorations
throughout the song, which I'll tab directly below to be used as a guide.

      C/G                                                 F7M/C         Am      G...
Eb|---0--0-0--0--0-0--0-0--0--0-0--0-0--0--0-0--0-0--0--0-0--0-0--0--------------------|
Bb|---1--1-1--1--1-1--1-1--1--1-1--1-1--1--1-1--1-1--1--1-1--1-1--1--------------------|
Gb|---0--0-0--0--0-0--0-0--0--0-0--0-0--0--0-0--0-0--0--0-2--2-0--2--------------------|
Db|---2--2-0--2--0-2--2-0--2--0-2--2-0--2--0-2--2-0--2--0-3--3-3--3--------------------|
Ab|---3--3-3--3--3-3--3-3--3--3-3--3-3--3--3-3--3-3--3--3-3--3-3--3--------------------|
Eb|---3--3-3--3--3-3--3-3--3--3-3--3-3--3--3-3--3-3--3--3------------------------------|



INTRO/INTERLUDE - C/G | F7M/C   | Am | G | C/G


VERSE
C/G
   We're all broke down
F7M/C  
   We're all broke
   Am          G               C/G
   Baby, we're all broken down
         Am              G               C/G
   We'll wait for time to turn us around

C/G
   We can't back down
F7M/C       Am       G             C/G 
   Imagine, everybody hanging around
   Am       G             C/G
   Everybody hanging around


BRIDGE
F7M/C               Am         G
   Forget me like a cheap line amongst the pages
F7M/C                                Am          G
   (but) I'll remember you, let your melody ring out through the ages
F7M/C                        Am         G
   I'm not the child on your back seat crawling around
F7M/C                                             C/G
   So stand up, be the myth when you can't be the man


INTERLUDE


VERSE
C/G
   You know the sound
C/G              F7M/C  
   You hear the sound
                  Am           G            C/G
   It kills you a little more inside every time
       Am         G               C/G
   But for tonight we'll be all right

C/G
   Meet me up town
F7M/C             Am         G                C/G
   For one drink, tell me why you're feeling down
   Am          G               C/G
   Tell me why you're feeling down


BRIDGE
F7M/C                 Am            G
   I get you, from my feet up to my fingertips
F7M/C                        Am             G
   And I'll let you put your hands on me as I move my hips
F7M/C                       Am         G
   And I'll hurt too as you fall down, down to the ground
F7M/C  
   We'll be the dance, and we'll be just some people fooling around


INTERLUDE x2

SOLO (played over interlude)
Eb|--------------------------------------------------------------------|
Bb|--5-3--5--1---5-3--5--1---5-3--1---5-5-5-3--5--5---5-5-5-3--5-3-1---|
Gb|--------------------------------------------------------------------|
Db|--------------------------------------------------------------------|
Ab|--------------------------------------------------------------------|
Eb|--------------------------------------------------------------------|

Eb|-------------3-0--3-------------3-0--3---------------------------3-3-3-1--3-1-0---|
Bb|--5-3--5--1----------5-3--5--1----------5-3--1---5-5-5-3--5--5---5-5-5-3--5-3-1---|
Gb|----------------------------------------------------------------------------------|
Db|----------------------------------------------------------------------------------|
Ab|----------------------------------------------------------------------------------|
Eb|----------------------------------------------------------------------------------|



BRIDGE
F7M/C               Am         G
   Forget me like a cheap line amongst the pages
F7M/C                                Am          G
   (but) I'll remember you, let your melody ring out through the ages
F7M/C                        Am         G
   I'm not the child on your back seat crawling around
F7M/C                                C/G
   So stand up, be the myth when you can't be the man


INTERLUDE 
Добавлено: 17.10.2015
Другие материалы по этой песне:
  • Аккорды и текст

Страница создана 17.10.2015
http://primanota.ru/1-dads/for-randy-robinson-and-cassidy-chords.htm
Привет, Гость.
Предлагаем пройти революционный курс по гитаре.
Подарок от PrimaNota.Ru, забирай!