PrimaNota.ru - самый крупный в мире бесплатный архив песенных текстов, аккордов, табулатур и нот


+/- {Plus/Minus} - I've Been Lost - таба, видео

Регистрация Запомнить меня
Войти через:  Facebook Google Twitter Vk Yandex Mail.ru

+/- {Plus/Minus} - I've Been Lost - таба, видео

Печатать
Просмотров: 55
Author/Artist: Plus Minus (www.plusmin.us)
Title: I've been lost
Transcribed by: Andrew Biles

A few small things to explain first.  The first version of the chorus is
played the first two times, the first time it just plays the sequence once,
the second time it plays it twice (minus the last picking part) and finishes
on the E5.
In the solo, 'br' is a bend that comes back down, whereas in the chorus the
bend is just '^'.  'tr' stands for tremolo picking.
Where tremolo picking is used in the 3rd verse, try and include the mute in as
well, he just plays that note for practically the whole verse then slides out
into the chorus.  All the octaves in the last chorus are tremolo picked.
Inbetween the chorus and the outro play the main riff (Intro/Verse riff).
The outro is a bit awkward to work out as I think it seems different each time
he plays the sequence, but it's based around that kind of movement, so mess
around with it and change small parts of it.

Standard Tuning


 Intro/Verse
|-----------0-----------0--|
|-----0-----------0--------|
|---8-----8-----8-----8----|
|-6-----6-----6-----6------|
|--------------------------|
|--------------------------|

 Chorus
|-----------------------0-----------0-----------------------0-----------0-|----|
|-----------------0-----------0-----------------------0-----------0-------|----|
|-8--6--9--8^---8-----8-----8-----8---8--6--9--8^---8-----8-----8-----8---|----|
|-6--4--7--6--6-----6-----6-----6-----6--4--7--6--6-----6-----6-----6-----|-2--|
|-------------------------------------------------------------------------|-2--|
|-------------------------------------------------------------------------|-0--|

 Solo
|----------------------------------------------------------------------------|
|----------------------------------------------------------------------------|
|-8--8-8-8-8br-8br-8--8-8-8-8br-8br-8--8-8-8-8br-8--8-8-8-8br-11tr-----13tr--|
|-6--6-6-6---------6--6-6-6---------6--6-6-6-----6--6-6-6--------------------|
|----------------------------------------------------------------------------|
|----------------------------------------------------------------------------|


 Verse (after solo)
|-12/11-11tr---------------------------------------------------\---|
|-x-----x----------------------------------------------------------|
|-9-/8-------------------------------------------------------------|
|------------------------------------------------------------------|
|------------------------------------------------------------------|
|------------------------------------------------------------------|

 Chorus
|------------6---7---8---------------8---9---10--------------10--11--12-----|
|------------x---x---x---------------x---x---x---------------x---x---x------|
|-8--6--9--8-3---4---5----8--6--9--8-5---6---7----8--6--9--8-8---9---10---8-|
|-6--4--7--6--------------6--4--7--6--------------6--4--7--6--------------6-|
|---------------------------------------------------------------------------|
|---------------------------------------------------------------------------|

-------------------0-----------0--|
-------------0-----------0--------|
-6--9--8---8-----8-----8-----8----|
-4--7--6-6-----6-----6-----6------|
----------------------------------|
----------------------------------|

 Outro
|-------11-------11-------11-12-----12-------11-------11-----|
|----12-------12-------12-------12-----12-------12-------12--|
|-13-------13-------14--------------------13-------13--------|
|------------------------------------------------------------|
|------------------------------------------------------------|
|------------------------------------------------------------|

any questions? andrewbiles@hotmail.com
_________________________
Lyrics:

All of the things that I had planned
On the back burner
Not in hand
If it all fell apart today
What would I have to show for it?

Back in the foreground don't you see?
Dressed like a stone and constantly
Everything's coming back to me
Everything's set for me to be

Try to understand
I've been lost

Ending, beginning
What's the use?
It doesn't matter which came first
Standing up straight was never right
Kneeling upright is even worse

Try to understand
I've been lost
Not the only one
Ready to come down
Добавлено: 06.06.2016
Вам также может быть интересно:
Другие материалы по этой песне:
  • Аккорды и текст

Страница создана 06.06.2016
http://primanota.ru/-plus-minus/ive-been-lost-chords.htm
Привет, Гость.
Предлагаем пройти революционный курс по гитаре.
Подарок от PrimaNota.Ru, забирай!