PrimaNota.ru - самый крупный в мире бесплатный архив песенных текстов, аккордов, табулатур и нот


이승철 - Whirlpool - таба, видео

Регистрация Запомнить меня
Войти через:  Facebook Google Twitter Vk Yandex Mail.ru

이승철 - Whirlpool - таба, видео

Печатать
Просмотров: 215
Уроки эстрадного вокала в Санкт-Петербурге
-------------------------------------------------------------------------------
                             WHIRLPOOL - きのこ帝国
-------------------------------------------------------------------------------
Tabbed by: markiiitu
E-mail: marcolucio27@gmail.com

Tuning: Standard

e|--17-------17--------17--------17------------------------------------------|
B|-----17-19-----17-19-----17-19-----17-19-----------------17/19------17-----|
G|-----------------------------------------19-16-16--19------------------19--|
D|---------------------------------------------------------------------------|
A|---------------------------------------------------------------------------|
E|---------------------------------------------------------------------------|

e|--17-------17--------17--------17---------------------------------------------|
B|-----17-19-----17-19-----17-19-----17-19-----------------17/19------17----17--|
G|-----------------------------------------19-16-16--19------------------19-----|
D|------------------------------------------------------------------------------|
A|------------------------------------------------------------------------------|
E|------------------------------------------------------------------------------|

e|------|
B|--19--|
G|------|
D|------|
A|------|
E|------|

************************************

| /   slide up
| \   slide down
| h   hammer-on
| p   pull-off
| ~   vibrato
| +   harmonic
| x   Mute note
| b   Bend
| pb  Pre-bend
| br  Bend release
| pbr Pre-bend release
| brb Bend release bend

************************************
Добавлено: 07.09.2014
Другие материалы по этой песне:
  • Аккорды и текст

Страница создана 07.09.2014
http://primanota.ru/-2/whirlpool-chords.htm
Привет, Гость.
Предлагаем пройти революционный курс по гитаре.
Подарок от PrimaNota.Ru, забирай!