PrimaNota.ru - самый крупный в мире бесплатный архив песенных текстов, аккордов, табулатур и нот


이승철 - 彩虹 Rainbow - аккорды и текст, видео

Регистрация Запомнить меня
Войти через:  Facebook Google Twitter Vk Yandex Mail.ru

이승철 - 彩虹 Rainbow - аккорды и текст, видео

Печатать
Просмотров: 93
彩虹 Rainbow
이승철
Intro

   C           Dm7           Am6         Dm7           C           Dm7        G 
e|-0-----------1-----------|-3-----------1-----------|-0-----------1--------|-------------------------|
B|-------1-----------1-----|-------1-----------1-----|-------1-----------1--|-3-----1--0--------------|
G|----0-----------2--------|----0-----------2--------|----0-----------2-----|----0--0--0--------------|
D|-------------0--------0--|-2--------2--0--------0--|-------------0-----0--|-------------------------|
A|-3--------3--------------|-------------------------|-3--------3-----------|-------------------------|
E|-------------------------|-------------------------|----------------------|-3-----------------------|



Verse 1

C   Dm7   C  Dm7
哪裡有彩虹告訴我  
   C    E     Am  Am/G
能不能把我的願望還給我
F    G     Em Am
為甚麼天這麼安靜   
   Am7   D7/F# G
所有的雲都跑到我這裡


Verse 2

  C    Dm7   C  Dm7   
有沒有口罩一個給我  
   C    E     Am  Am/G
釋懷說了太多就成真不了
  F   G     Em  Am    
也許時間是一種解藥  
     F           G
也是我現在正服下的毒藥


Verse 3

     F     G     Em  Am
看不見你的笑我怎麼睡得著
     F      G     C
你的聲音這麼近我卻抱不到
     Bm7 E     Am  Am/G
沒有地球太陽還是會繞
     Dm  D/F#  G
沒有理由我也能自己走


Chorus

     C   E     Am  Am/G
你要離開我知道很簡單
     F   G     C  G
你說依賴是我們的阻礙 
     C  E    Am    Dm7
就算放開但能不能別沒收我的愛
  F     G  C
當作我最後才明白


Repeat Verse 2, Verse 3 and Chorus


Rap

    C         E
看不見你的笑要我怎麼睡得著
Am          G
你的聲音這麼近我卻抱不到
F             G
沒有地球太陽還是會繞會繞
C           G
沒有理由我也能自己走掉
C          E
釋懷說了太多就成真不了
Am          G
也許時間是一種解藥解藥
F          G     C
也是我現在正服下的毒藥


Repeat Chorus

   C           Dm7           Am6         Dm7           C
e|-0-----------1-----------|-3-----------1-----------|-0-----------------------|
B|--------1----------1-----|-------1-----------1-----|-1-----------------------|
G|----0-----------2--------|----0-----0-----2--------|-0-----------------------|
D|-------------0--------0--|-2-----------0--------0--|-2-----------------------|
A|-3--------3--------------|-------------------------|-3-----------------------|
E|-------------------------|-------------------------|-------------------------|
Добавлено: 24.03.2016
Другие материалы по этой песне:
  • Аккорды и текст

Страница создана 24.03.2016
http://primanota.ru/-2/-rainbow-chords.htm
Привет, Гость.
Предлагаем пройти революционный курс по гитаре.
Подарок от PrimaNota.Ru, забирай!